Зробити стартовою  |  Додати в вибране
 
Пошук по сайту:  
  логін: пароль:  
    Реєстрація на сайті   Нагадати пароль?    

Видавництво Симфонія | Книжкова фабрика

akords.org » М » Мумий Тролль » Вот и вся любовь
Знайти необхідні акорди

Мумий Тролль - Вот и вся любовь  акорди

Intro
E|-----------------------------------------------------------|
B|-7---7---7-7-7---5-5-5-5-5-----------0---------------0-----|
G|-7---7---7-7-7---5-5-5-5-5-----2-------2---------2-----2---|
D|-7---7---7-7-7---5-5-5-5-5---2---1-------1-----2---1-----1-|
A|-5---5---5-5-5---3-3-3-3-3-0-----------------0-------------|
E|-----------------------------------------------------------|

D C Am
Кот кота ниже живота
D C Am
Водку любишь? Это трудная вода.
D C

Как авто, любовь и битва
Am
Не молиться и проспать
D C
Рулить можно, но стоять
Am
Ведь и прыгать - не летать

D G
Кто метал о стенки кости
Am
Кто-то юморил со злости
G Em Am
Вот и вся любовь
G Em Am
Вот и вся любовь

Кто когда угадает иногда,
Мною что-о зажато в кулачке?
Камни поклевали птицы
Зацелованы девицы
Колечко не потерять
Ведь и прыгать - не летать.

Лампочка, ожерелье голых поп,
Вся любовь, оп! оп! оп!
Песню можно спеть, не сбиться,
Сбиться и не повториться.
Просто заново запеть
И, подпрыгнув, полететь.

-----------------------------
|  акорди, навчання, відео  |
|     http://akords.org     |
-----------------------------

 (голосів: 0)
   Інші пісні:
  • Кот кота
  • Колечко (deadмикс от DEADУШЕК)
  • Любовь
  • Любовь и деньги
  • Любовь
  •  
    Шановний відвідувач, Ви зайшли на сайт як незареєстрований користувач. Ми рекомендуємо Вам реєструватися або зайти на сайт під своїм ім'ям.

    Додавання коментаря

    Ім'я:*
    E-Mail:*
    Коментар:
    Введіть два слова, показані на зображенні: *
     
      

    BLIBL-створити сайт безкоштовно