Зробити стартовою  |  Додати в вибране
 
Пошук по сайту:  
  логін: пароль:  
    Реєстрація на сайті   Нагадати пароль?    

Видавництво Симфонія | Книжкова фабрика

akords.org » М » Мумий Тролль » Владивосток 2000
Знайти необхідні акорди

Мумий Тролль - Владивосток 2000  акорди

Соло:

e|---------3--7-7-3--------7-7-3--------|
B|---1---1----------3-3-3--------3-3-3--|
G|-2---2--------------------------------|
D|--------------------------------------|
A|--------------------------------------|
E|--------------------------------------|

e|---------3--7-7-3---------------7-|
B|---1---1----------3-3-3---1-0-3---|
G|-2---2----------------------------|
D|----------------------------------|
A|----------------------------------|
E|----------------------------------|

Am
С гранатою в кармане, с чекою в руке,
Мне чайки здесь запели на знакомом языке.
Dm
Я отходил спокойно - не прятался, не вор,
C E
Колесами печально в небо смотрит круизер.

Когда туман растаял и проныла луна,
Со смены не вернулась молодая жена
Вода отравится, погаснет свет, утихнет звук.
К тебе я больше не вернусь - такой теперь я друг.

Am Dm
Уходим, уходим, уходим,
C E
Наступят времена почище,
Am Dm C
Бьется родная, в экстазе пылая,
E
Владивосток две тыщи.

В объятиях полупьяных женщин гибли моряки,
Тельняшки рвали и кололи прямо на груди.
Не сердце остановится, не будет слышен стук.
Ты свой последний танец танцевал уже без рук.

Быть может, откопают через тысячу лет
В фантиках жевачки и осколках монет,
Где вылизан весь берег, не дошел до волны,
Где рельсы вылезали из кармана страны.

-----------------------------
|  акорди, навчання, відео  |
|     http://akords.org     |
-----------------------------

 (голосів: 0)
   Інші пісні:
  • Уходим в море
  • Идиллия
  • Всё это рэйв (2 варіант)
  • Всё это рэйв
  • Невский проспект
  •  
    Шановний відвідувач, Ви зайшли на сайт як незареєстрований користувач. Ми рекомендуємо Вам реєструватися або зайти на сайт під своїм ім'ям.

    Додавання коментаря

    Ім'я:*
    E-Mail:*
    Коментар:
    Введіть два слова, показані на зображенні: *
     
      

    BLIBL-створити сайт безкоштовно