Зробити стартовою  |  Додати в вибране
 
Пошук по сайту:  
  логін: пароль:  
    Реєстрація на сайті   Нагадати пароль?    

Видавництво Симфонія | Книжкова фабрика

akords.org » М » Мумий Тролль » +28
Знайти необхідні акорди

Мумий Тролль - +28  табулатура

Intro
Riff1:
E A F#m
e|-------------------------------------------------------------|
B|-------------------------------------------------------------|
G|-------------------------------------------------------------|
D|-----2--4--6--6--4h6p4h6--4--6-6--4h6p4h6--4--6-6--4h6-7-6---|
A|--2--------------------------------------------------------7-|
E|-------------------------------------------------------------|

Verse1: (весь куплет в три аккорда)
E A F#m
Когда даже ночью плюс 28
Ну что еще скинуть, что снять?
Да и некуда бросить.
Когда все закипает от одной мне улыбки,
А мысли так быстры, как скорость улитки.

Chorus: (еще проще - в два аккорда)
Riff1 x2
E A
Ты наверное шутишь,
Шутишь наверное,
Бросаешь мне плавки в лицо,
Как будто рвешь себе вены.
Riff2
Ты наверное шутишь,
Или голову мутишь
Мне.

Verse2:
Отлежаться и осмотреться, как упали кометы.
Мимо сердца и мимо кармана, и мимо конверта.
Как желания издеваются сыпят копейками
Прячутся и уползают змейками

Chorus:
Ты наверное шутишь,
Шутишь наверное,
Бросаешь мне плавки в лицо,
Как будто рвешь себе вены.
Ты наверное шутишь,
Или голову мутишь
Мне.

Chorus
Сдается стекло здесь ты смотри осторожней
Передай своей маме что ее полюбил бы я тоже :)
Ты наверное шутишь в кустах притаившися
E E7 A
Добежим до фонтана
AmC
Пожалуйста!
E E7 A
Добежим до фонтана
AmC
Пожалуйста!

Riff1 x4
E A F#m x4
Riff2
e|---------------------------|---------------------------------|
B|---------------------------|------------------4--5--7----7-5-|
G|---------------------------|---------------------------------|
D|-----2--4-6--4--4--4--2--2-|----2--46--4--4------------------|
A|--0------------------------|-0-------------------------------|
E|---------------------------|---------------------------------|
E
E|-------------------|
B|-------------------|
G|-------------------|
D|-------------------|
A|--0--2--4--2--0----|
E|-------------------|

Chords used:
E A F#m E7 AmC
e|--0----0----2----0----0----|
B|--0----2----2----0----1----|
G|--1----2----2----1----2----|
D|--2----2----4----0----2----|
A|--2----0----4----2----3----|
E|--0----0----2----0----0----|

-----------------------------
|  акорди, навчання, відео  |
|     http://akords.org     |
-----------------------------

 (голосів: 0)
   Інші пісні:
  • Случайности
  • О тебе не поют
  • Песня
  • Капитан Белый Снег
  • Лав-ка
  •  
    Шановний відвідувач, Ви зайшли на сайт як незареєстрований користувач. Ми рекомендуємо Вам реєструватися або зайти на сайт під своїм ім'ям.

    Коментарі
    #1 написав: Лесничий (7 жовтня 2009 16:29)
    Прекрасно! ждемс продолжения!

    Коментарі
    #2 написав: Maklakov (8 жовтня 2009 08:13)
    Благодарю за Ваш труд

    Коментарі
    #3 написав: Шихранов (11 жовтня 2009 10:09)
    Суперский диз!

    Коментарі
    #4 написав: Nitrat (26 жовтня 2009 15:50)
    Круто, спасибо! ;)

    Додавання коментаря

    Ім'я:*
    E-Mail:*
    Коментар:
    Введіть два слова, показані на зображенні: *
     
      

    BLIBL-створити сайт безкоштовно