Зробити стартовою  |  Додати в вибране
 
Пошук по сайту:  
  логін: пароль:  
    Реєстрація на сайті   Нагадати пароль?    

Видавництво Симфонія | Книжкова фабрика

akords.org » М » Мультфильмы » Яды (3 вариант)
Знайти необхідні акорди

Мультфильмы - Яды (3 вариант)  акорди

Соло:
E|------------------------------|
B|------------------------------|
G|-9-9-8-8-------9-9-8-8--------| x2
D|---------9-9-6---------9-9-6--|
A|------------------------------|
E|------------------------------|

E|----------------------------------------------|
B|----------------------------------------------|
G|-------------------------------------------9--|
D|-----5-5-6-6-8-----5-5-6-6-8-----6-6-8-8-8----|
A|-6-6-----------6-6-----------7-7--------------|
E|----------------------------------------------|

E
К трамвайному стеклу
Прилеплен нос и щека
G#m
Консервы из пассажиров
Вспышки на проводах
A#(VII)
И за спиною в сумке
Eb
Опять пять кассет
F#
Они всегда там
Eb
С пятнадцати лет

И ты считаешь минуты
Между поездами
Никуда не спешишь
Смотри опять опоздаешь
Потерялась искала
Батарейки для плейера
Интересная книга
Часы не проверила
F#
Ты

Припев:
Hm F#m
В яды мы превращаемся я и ты
Em
Срываемся на часы просто по городу
D F#
Без вести и звонков
В яды мы превращаемся я и ты
Улыбаемся от слабости не хватает сил просто
"Отпусти" сказать и потерять ключи вторые

И вроде тот же город
И та же вода
По две закладки в каждой книге
Даже та же еда
Загазованый воздух
Тут ни при чём
Надоело, устала
Ну иди, ну пойдём
Мы посчитаем минуты
До следующего поезда
Просто рассказ
Просто история
Даже вместе найдём
Батарейки для плейера
Интересных книг нет
Зря мне не верила ты

-----------------------------
|  акорди, навчання, відео  |
|     http://akords.org     |
-----------------------------

 (голосів: 0)
   Інші пісні:
  • Яды
  • Яды (2 варіант)
  • Без четверти пять
  • Медлено
  • Вместе с тобой
  •  
    Шановний відвідувач, Ви зайшли на сайт як незареєстрований користувач. Ми рекомендуємо Вам реєструватися або зайти на сайт під своїм ім'ям.

    Додавання коментаря

    Ім'я:*
    E-Mail:*
    Коментар:
    Введіть два слова, показані на зображенні: *
     
      

    BLIBL-створити сайт безкоштовно