Зробити стартовою  |  Додати в вибране
 
Пошук по сайту:  
  логін: пароль:  
    Реєстрація на сайті   Нагадати пароль?    

Видавництво Симфонія | Книжкова фабрика

akords.org » М » Мультфильмы » Магнитофон
Знайти необхідні акорди

Мультфильмы - Магнитофон  акорди

e|---0------1-------0-------2-------1-------1-------0-------0--|
B|---1------0-------1-------3-------3-------3-------1-------0--|
G|-0---0--0---0---2---2---2---2---2---2---2---2---2---2---1---1|
D|----------------------0-------0-------0----------------------|
A|3-------------0-------------------------------0--------------|
E|-------3----------------------------------------------0------|

C G Am D Dm Dm Am E - x2

C G Am D
Крутятся бобины, шуршат, чуть слышно
Dm Am E
Тихо скрипнет магнитофон
В топот серых драных ворон, на крышах
Мне мешает вслушаться он
С D
"Вот уже и чай со слоном,
C D
Всё уже готово мы ждём
Am D
Капельками пота когда
Dm
Покроется спина"

Первый лучик солнца вернёт одежду
Лижет ветер плечи теплом
Провожу тебя через двор, как прежде
На самый первый поезд в метро

"Если нам не хочется спать
Если уже скоро рассвет
Если нам так хорошо
Значит нас уже нет "

Припев:

Am E D
И никогда не узнает никто
E C E Am E
Что мы ходили в кино и целовались в парадной
C G Am
И пусть играет магнитофон
D Dm Am E
Эту мою песню. Потом её перемотает обратно

Телевизор включен тихо-тихо в комнате
Крепкий сладкий чай - сонный разговор
На столе зеркальном еле слышно спорят
Три кассеты Pulp, Oasis, и Blur

"Вот уже и чай со слоном ............ "

-----------------------------
|  акорди, навчання, відео  |
|     http://akords.org     |
-----------------------------

 (голосів: 0)
   Інші пісні:
  • Три цвета (Первый снег)
  • 001
  • 18 Берез
  • Три цвета (Первый снег) (2 варіант)
  • Спой мне песню про любовь
  •  
    Шановний відвідувач, Ви зайшли на сайт як незареєстрований користувач. Ми рекомендуємо Вам реєструватися або зайти на сайт під своїм ім'ям.

    Додавання коментаря

    Ім'я:*
    E-Mail:*
    Коментар:
    Введіть два слова, показані на зображенні: *
     
      

    BLIBL-створити сайт безкоштовно