|  
 
:  
  : :  
      ?    

  |

akords.org » » »

-  

Em
ʠ
DHm
-
Em
 
DHm

:
CDEmHm
,
CDEm

CDEmHm
,
CDEm
Ƞ
-


Ƞ
.

-


.
(-)
Em
e|----------------0---------------0--------------
H|------------0-------0-------0-------0----------
G|----------0---0---0---0---0---0---0---0--------
D|------------------------2----------------------
A|--------2--------------------------------------
E|-----------------------------------------------
ʠ
DHm
e|-----------------2---------------2-------------
H|-------------3-------3-------3-------3---------
G|-----------2---2---2---2---4---4---4---4-------
D|---------0-------------------------------------
A|-------------------------2---------------------
E|-----------------------------------------------
-
Em
e|-------------------0---------------0-----------
H|---------------0-------0-------0-------0-------
G|-------------0---0---0---0---0---0---0---0-----
D|---------------------------2-------------------
A|-----------2-----------------------------------
E|-----------------------------------------------
 
DHm
e|------------2-------------------2--------------
H|--------3-------3-----------3-------3----------
G|------2---2---2---2-------4---4---4---4--------
D|----0------------------------------------------
A|------------------------2----------------------
E|-----------------------------------------------

CDEmHm
e|---------0---------------2---------------0---------------2------------
H|-----2-------2-------3-------3-------0-------0-------3-------3--------
G|---0---0---0---0---2---2---2---2---0---0---0---0---4---4---4---4------
D|-----------------0----------------------------------------------------
A|-3-------------------------------2---------------2--------------------
E|----------------------------------------------------------------------
------------,
CDEm
e|---------0---------------2---------------0---------------0------------
H|-----2-------2-------3-------3-------0-------0-------0-------0--------
G|---0---0---0---0---2---2---2---2---0---0---0---0---0---0---0---0------
D|-----------------0-------------------------------2--------------------
A|-3-------------------------------2------------------------------------
E|----------------------------------------------------------------------
------頠
CDEmHm
e|---------0---------------2---------------0---------------2------------
H|-----2-------2-------3-------3-------0-------0-------3-------3--------
G|---0---0---0---0---2---2---2---2---0---0---0---0---4---4---4---4------
D|-----------------0----------------------------------------------------
A|-3-------------------------------2---------------2--------------------
E|----------------------------------------------------------------------
------------,
CDEm
e|---------0---------------2---------------0---------------0------------
H|-----2-------2-------3-------3-------0-------0-------0-------0--------
G|---0---0---0---0---2---2---2---2---0---0---0---0---0---0---0---0------
D|-----------------0-------------------------------2--------------------
A|-3-------------------------------2------------------------------------
E|----------------------------------------------------------------------
------蠠ࠠ

-----------------------------
|  , ,   |
|     http://akords.org     |
-----------------------------

 (: 0)
    :
  • (4 )
  • (3 )
  •  
    , . '.

    ':*
    E-Mail:*
    :
    , : *
     
      

    BLIBL-