Зробити стартовою  |  Додати в вибране
 
Пошук по сайту:  
  логін: пароль:  
    Реєстрація на сайті   Нагадати пароль?    

Видавництво Симфонія | Книжкова фабрика

akords.org » М » Мандри » Ти і Я
Знайти необхідні акорди

Мандри - Ти і Я  табулатура

Вступ

E||--3--------2--------0-----|--3--------2--------0-----|--0--------0--------0-----|--0-----------------||
B||-----0--------0--------0--|-----0--------0--------0--|-----1--------1--------1--|--------------------||
G||--------0--------0--------|--------0--------0--------|--------0--------0--------|--------------------||
D||--------------------------|--------------------------|--------------------------|--------------------||
A||--------------------------|--------------------------|--------------------------|--3-----------------||
E||--------------------------|--------------------------|--------------------------|--------------------||

Em
Вже починався день
Em
Сонце тремтіло в склі
C Am
Дзвінко співав в гілках
Em
Дивний синій птах

Em
Хвилі солодких мрій
Em
Теплий ранковий дим
C Am
За вікном моїм
Em
Новий день чека

Am Em
Ти розкажи мені
Am Em
Що в серці любов жива
C Am
Там де ми загубили весну
H7 Em
Почалася зима

Приспів:
C Am
Там де ти і я
Em
В небі серед зірок вночі
C Am
Там де ти і я
Em
В небі з хмарами сонцем вдень
C Am
Там де ти і я
Em
Разом наші серця й думки
C Am
Там де ти і я
C D Em
Там де я і ти

Срібний весняний цвіт
Тихо несе вода
У безмежний світ
Звідки синій птах

Срібна роса в траві
Усмішка на вустах
І співай-летить
В небо синій птах

Ти розкажи мені
Що в серці любов жива
Навколо нас розтане сніг
А у душі розквітне весна

-----------------------------
|  акорди, навчання, відео  |
|     http://akords.org     |
-----------------------------

 (голосів: 2)
   Інші пісні:
  • Розкажи
  • Ти в серці моїм
  • Талісман
  • Стихія
  • Прощай, диско
  •  
    Шановний відвідувач, Ви зайшли на сайт як незареєстрований користувач. Ми рекомендуємо Вам реєструватися або зайти на сайт під своїм ім'ям.

    Коментарі
    #1 написав: Dimaua (21 лютого 2015 11:39)
    який перебор

    Додавання коментаря

    Ім'я:*
    E-Mail:*
    Коментар:
    Введіть два слова, показані на зображенні: *
     
      

    BLIBL-створити сайт безкоштовно