Зробити стартовою  |  Додати в вибране
 
Пошук по сайту:  
  логін: пароль:  
    Реєстрація на сайті   Нагадати пароль?    

Видавництво Симфонія | Книжкова фабрика

akords.org » М » Мандри » Ти в серці моїм
Знайти необхідні акорди

Мандри - Ти в серці моїм  табулатура

       D           F         Gm       F           A
E-------1----------1-----------3--------1--------0----
H------3-3--------1-2--------3---------1--------2-2---
G-----2----------2----3-----------------------2----2---
D----0------0-------------5---------3--------2--------
A-------------3----------------------------------------
E------------------------------------------------------

Dm A
Ти в серці моїм
Dm F A
В моїх думках, в мріях і снах моїх.
Dm A
Ти промінь зорі
Dm F A
В сірих снігах,в смутку шляхів моїх.

Приспів:

F E
Де ніч народжує день,
F E
Де світло народжує тіні.

Am F
Де я кохаю тебе,
Am
Де в серці стріла,
F E
Де крига в очах твоїх тане,
Am F
Ти, з вогню і води,
Am F G A
Квітка жаги, квітка свободи.

Листя із теплих гілок твоїх
Пада на чорну землю.
Пісня лине із вуст твоїх
В небо і в моє серце.

Приспів.

Програш
Dm F Cx2
Dm F Cx2

F E
Де ніч народжує день,
F E
Де світло народжує тіні.


Аm F
Там, де ніч народжує день,
Am F G A
Там, де світло народжує тіні...

-----------------------------
|  акорди, навчання, відео  |
|     http://akords.org     |
-----------------------------

 (голосів: 1)
   Інші пісні:
  • Бо в сні відлітаю
  • Золотоволоска
  • Золотоволоска
  • Ти і я (Тінь кохання)
  • Серце
  •  
    Шановний відвідувач, Ви зайшли на сайт як незареєстрований користувач. Ми рекомендуємо Вам реєструватися або зайти на сайт під своїм ім'ям.

    Додавання коментаря

    Ім'я:*
    E-Mail:*
    Коментар:
    Введіть два слова, показані на зображенні: *
     
      

    BLIBL-створити сайт безкоштовно