Зробити стартовою  |  Додати в вибране
 
Пошук по сайту:  
  логін: пароль:  
    Реєстрація на сайті   Нагадати пароль?    

Видавництво Симфонія | Книжкова фабрика

akords.org » Л » Любэ » Прорвёмся
Знайти необхідні акорди

Любэ - Прорвёмся  акорди

Am
На спящий город опускается туман,
Dm
Шалят ветра по подворотням и дворам,
E
А нам всё это не впервой,
Am F
А нам доверено судьбой
Dm E Am
Оберегать на здешних улицам покой.

Припев:
F G C
Да!.. А пожелай ты им ни пуха ни пера.
Dm E Am A7
Да!.. Пусть не по правилам игра.
F G C
Да!.. И если завтра будет круче чем вчера,
Dm E Am
"Прорвёмся" - ответят опера.
Dm E Am
Прорвёмся, опера!

Am
Ещё вечерние зажгутся фонари,
Dm
Туман рассеется и что не говори,
E
Сейчас бы просто по сто грамм,
Am F
И не мотаться по дворам,
Dm E Am
Но ещё рано расслабляться операм.

1|-0-5-7-5--0-5-7-5---5-7-8-12---0-5-7-5--0-5-7---5---5-7-8-13-|
2|-------------------------------------------------------------|
3|-------------------------------------------------------------|

1|---0-1-0-------1-0-------0-1-5---0-1-0-------1-0-----0-1-8-7-|
2|-3-------3---3------3--3-------3-------3---3-----3-3---------|
3|-----------2-----------------------------2-------------------|

-----------------------------
|  акорди, навчання, відео  |
|     http://akords.org     |
-----------------------------

 (голосів: 0)
   Інші пісні:
  • Опера
  • Я вернусь
  • Всё будет хорошо
  • Блюз ночного дворника
  • Пусть Будет Ночь
  •  
    Шановний відвідувач, Ви зайшли на сайт як незареєстрований користувач. Ми рекомендуємо Вам реєструватися або зайти на сайт під своїм ім'ям.

    Додавання коментаря

    Ім'я:*
    E-Mail:*
    Коментар:
    Введіть два слова, показані на зображенні: *
     
      

    BLIBL-створити сайт безкоштовно