Зробити стартовою  |  Додати в вибране
 
Пошук по сайту:  
  логін: пароль:  
    Реєстрація на сайті   Нагадати пароль?    

Видавництво Симфонія | Книжкова фабрика

akords.org » Л » Любэ » Младшая сестренка (2 варіант)
Знайти необхідні акорди

Любэ - Младшая сестренка (2 варіант)  табулатура

Intro:

Em Asus4 Em
B|--------0-------0-----------------------------|
G|--------0----2-----2--------------------------|
D|-----2-------2------------------------2-------|
A|------------------------2--0------------------|
E|--0---------------------------3----0----------|

Перебор:

Em
B|--0--------0------0-------0-------0------0-----|
G|-----0--------0------0-------0-------0------0--|
D|--------2--------2--------------2-------2------|
A|-----------------------------------------------|
E|--0-----------------------0--------------------|

C
E|-----------------------------------------------|
B|--1--------1------1------1-------1------1------|
G|-----0--------0------0------0-------0------0---|
D|--------2--------2-------------2-------2-------|
A|--3----------------------3---------------------|

Am H7 Em fl.
E|------------------------2------2-----2----------------12---|
B|--1-------1------1---------0------0-----0-----0------------|
G|-----2-------2------2---------2------2--------0------------|
D|--------2-------2-----------------------------2------------|
A|--0---------------------2----------------------------------|
E|----------------------------------------------0------------|
/конец.

Далее играется тоже самое со слов "припев" до слова "конец",
вступает вторая гитара:

E|--0--0--7--5^7^5^0--3-----------------|

E|--0--0--7--5^7^5^0--3-----------------|
fl.
E|--0--0--7--5^7^5^0--3----0-----12-----|
/конец вступления.

Гитара c1

Em
B|--0--------0------0-------0-------0------0-----|
G|-----0--------0------0-------0-------0------0--|
D|--------2--------2--------------2-------2------|
A|-----------------------------------------------|
E|--0-----------------------0--------------------|

Гитара c2

E|--0--0--7--5^7^5^0--3--|


Ты всё ещё веришь в любовь

Гитара c1

C
B|--1--------1------1------1-------1------1------|
G|-----0--------0------0------0-------0------0---|
D|--------2--------2-------------2-------2-------|
A|--3----------------------3---------------------|

Гитара c2

E|--0--0--7--10--8--5--|

Фильмами добрыми бредишь

Гитара c1

Am H7
E|------------------------2------2-----2-------|
B|--1-------1------1---------0------0-----0----|
G|-----2-------2------2---------2------2-------|
D|--------2-------2----------------------------|
A|--0---------------------2--------------------|

Гитара c2

E|-0--5--3-----5--7--8--7---5--|
B|----------5------------------|

И всё ещё веришь в любовь

Гитара c1

Em C Am H7

Гитара c2
fl.
E|--5--3---2--------------------12--|
B|------------5----5--4-------------|

Веришь..

Гитара c1

Em
B|--0--------0------0-------0-------0------0-----|
G|-----0--------0------0-------0-------0------0--|
D|--------2--------2--------------2-------2------|
A|-----------------------------------------------|
E|--0-----------------------0--------------------|

Гитара c2

E|--0--0--7--5^7^5^0--3--|

Из дома уходишь тайком

Гитара c1

C
B|--1--------1------1------1-------1------1------|
G|-----0--------0------0------0-------0------0---|
D|--------2--------2-------------2-------2-------|
A|--3----------------------3---------------------|

Гитара c2

E|--0--0--7--10--8--5-|

Так же без спроса взрослеешь


Гитара c1

Am H7
E|------------------------2------2-----2-------|
B|--1-------1------1---------0------0-----0----|
G|-----2-------2------2---------2------2-------|
D|--------2-------2----------------------------|
A|--0---------------------2--------------------|

Гитара c2

E|-0--5--3-----5--7--8--7---5-|
B|----------5-----------------|

И всё ещё веришь в любовь

Гитара c1

Em C Am H7

Гитара c2

E|--0--0--7--5^7^5^0--3---0--0--7--5^7^5^0--3-| х2

Веришь..

Припев:
Em C Am H7
Младшая моя сестрёнка,
Em C Am H7
Что же ничего не скажешь мне?
Em C Am H7
Младшая моя сестренка,
Em C Am H7
Жаль тебя мне..

Em
Какая бесстрашная ты -
C
Кормишь дворнягу с ладошки..
Am H7
Тебя любят травы, цветы,
Em C Am H7
Кошки

И всё же ты, всё же дитя,
Фильмами добрыми бредишь.
И веришь в любовь не шутя,
Веришь..

Припев.

-----------------------------
|  акорди, навчання, відео  |
|     http://akords.org     |
-----------------------------

 (голосів: 0)
   Інші пісні:
  • Младшая сестренка
  • Младшая сестренка (3 варіант)
  • Ой-йо (Никто не услышит)
  • Ангельская пыль (3 варіант)
  • Два вора и монета (2 варіант)
  •  
    Шановний відвідувач, Ви зайшли на сайт як незареєстрований користувач. Ми рекомендуємо Вам реєструватися або зайти на сайт під своїм ім'ям.

    Додавання коментаря

    Ім'я:*
    E-Mail:*
    Коментар:
    Введіть два слова, показані на зображенні: *
     
      

    BLIBL-створити сайт безкоштовно