|  
 
:  
  : :  
      ?    

  |

akords.org » » »

-  



|-----------------8----|----------------|
|------------------8---|----------------|
|------0-4?9---------9-|----7-9-7^9^7---|
|--2-4---------10------|--0)----------7-|
|------------10--------|----------------|
|----------8-----------|----------------|

G Em7 Am Em
|------|------|------------|-------------|
|-0----|-3----|---1-1-1^0--|---0-0-0-----|
|----0-|----1-|---2-2-----2|---0-0---2^0-|
|---0--|---2--|------------|-------------|
|------|-2----|-0----------|-------------|
|-3----|------|------------|-0-----------|



H7 Em Em
|-------------|-------------|--------------|
|-------------|-------0-----|-------0------|
|---2-2-2-----|-----0---0---|-----0---0----|
|---1-1---1---|---2-------2-|---2-------2--|
|-2-----------|-------------|--------------|
|-------------|-0-----------|-0------------|


Am H7 Em Em
|-------------|-------------|-------------|--------------|
|-------1-----|-------0-----|-------0-----|-------0------|
|-----2---2---|-----2---2---|-----0---0---|-----0---0----|
|---2-------2-|---1-------1-|---2-------2-|---2-------2--|
|-0-----------|-2-----------|-------------|--------------|
|-------------|-------------|-0-----------|-0------------|


Am H7 Em Em
|-------------|-------------|-------------|--------------|
|-------1-----|-------0-----|-------0-----|-------0------|
|-----2---2---|-----2---2---|-----0---0---|-----0---0----|
|---2-------2-|---1-------1-|---2-------2-|---2-------2--|
|-0-----------|-2-----------|-------------|--------------|
|-------------|-------------|-0-----------|-0------------|


Am D G H7
|-------------|-------------|-------------|--------------|
|-------1-----|-------3-----|-----------0-|--------------|
|-----2---2---|-----2---2---|-----0—---2--|-----0--------|
|---2-------2-|---0-------0-|---0-----1---|-2-4---4--2-2-|
|-0-----------|-0-----------|--------2----|--------------|
|-------------|-------------|-3-----------|-----0--------|


Am
|-------------|-----0-2-0---|---0-2-3-2-0-|--------------|
|-------1^0---|---4-------4-|-4-----------|-0------------|
|-----------2-|-------------|-------------|---0----------|
|-0-----------|-------------|-------2-----|--------------|
|----2--0-----|-------2-----|-------------|--------------|
|-------------|-0-----------|-0-----------|-----2-0------|



C D G E7
|-------------|-0-----0-----|-----0-------|--------------|
|----------0--|-----1---1---|---3---3-----|-0------3-----|
|--------0----|---0-------0-|---------2---|-----0------1-|
|---2-4-------|-------------|-0-----------|---0------2---|
|-------------|-3-----------|-------------|--------2-----|
|-------------|-------------|-------------|-3------------|


Am Em H7
|-------------|-------------|-----------------|
|---1-1-1^0---|---0-0-0-----|-----------------|
|---2-2-----2-|---0-0---2^0-|-------2-2-2-----|
|-------------|-------------|-------1-1---1---|
|-0-----------|-------------|-----2-----------|
|-------------|-0-----------|---------------0-|


C D G E7
|-----------0-|-------------|---8-8-8-7-5-|------7-7-7-5-3--|
|---------0---|-------------|---5-5-5-5-5-|------8-8-8-7-5--|
|-------0-----|-------------|-------------|-----------------|
|---2-4-------|-------------|-------------|-----------------|
|-----------3-|-------|-0-----------|-----------------|
|-------------|-------------|-------------|-0---------------|


Em
|---5-5-5-----|-------------|-------------|--------------|
|---4-4-4-4---|-------0-----|-------0-----|--------------|
|-------------|-----0---0---|-----0---0---|--------------|
|-------------|---2-------2-|---2-------2-|--------------|
|-2-----------|-------------|-------------|--------------|
|-------------|-0-----------|-0-----------|--------------|

-----------------------------
|  , ,   |
|     http://akords.org     |
-----------------------------

 (: 0)
    :
  • (2 )
  • WWW (3 )
  • Dog Eat Dog
  • Story Of A Lonely Guy
  •  
    , . '.

    ':*
    E-Mail:*
    :
    , : *
     
      

    BLIBL-