Зробити стартовою  |  Додати в вибране
 
Пошук по сайту:  
  логін: пароль:  
    Реєстрація на сайті   Нагадати пароль?    

Видавництво Симфонія | Книжкова фабрика

akords.org » Л » Ленинград » Без тебя
Знайти необхідні акорди

Ленинград - Без тебя  табулатура

Вступление: (2 раза)
Cm B G# B Cm B G# B
E|-------------------------------|-----------------------------|
B|---------6-4-6-4---4--8-6-4-0--|---------6-4-6-8--8-11-9-8-6-|
G|-5--0--3-----------------------|-5--0--3---------------------|
D|-------------------------------|-----------------------------|
A|-------------------------------|-----------------------------|
E|-------------------------------|-----------------------------|
Cm Cm Cm
E|---------------|---------------|----------------|
B|---------------|---------------|----------------|
G|---------------|---------------|----------------|
D|--5-5-5-5-5-5--|---------------|-5-5-5-5-5-5----|
A|-------------3-|-------------3-|-------------3--|
E|---------------|-3-3-3-3-3-3---|----------------|

Cm B
У меня, как обычно - все отлично.
G# B
Мои корабли уходят в запой.
Cm B
У тебя, как обычно - все очень цинично:
G# B
"Мол, за собой посуду помой!"
Cm B
Ну и, конечно, все эти бабы,
G# B
Которые садятся мне на конец.
Cm B
О, я ебусь с ними со всеми,
G# B
Но без тебя пиздец!!!

Припев:
Cm B G# B
Без тебя пиздец!!!
2|--4--8-6-4-0--|
Cm B G# B
Без тебя пиздец!!!
2|--8--11-9-8-6-|
Cm B G# B
Без тебя пиздец!!!
2|--4--8-6-4-0--|
Cm B G# B
Без тебя пиздец!!!
2|--8--11-9-8-6-|

Проигрыш: (как вступление - 2 раза)

Знаю, знаю ты - одна такая.
Знаю, знаю ты - одна такая,
Знаю, знаю ты - одна такая есть, оу ес!!!
Знаю, знаю ты - одна такая.
Знаю, знаю ты - одна такая,
Знаю, знаю ты - одна такая
Знаю, знаю без тебя пиздец!!!

Припев.

Концовка:
Cm B G# B Cm B G# B
E|----------------------------|--------------------------------|
B|-------6-4-6-4---4--8-6-4-0-|---------6-4-6-8---8--11-9-8-6--|
G|-5-0-3----------------------|-5--0--3------------------------|
D|----------------------------|--------------------------------|
A|----------------------------|--------------------------------|
E|----------------------------|--------------------------------|

E|------------|----------------|
B|--11-9-8-6--|--11-9-8-6--13--|
G|------------|----------------|
D|------------|----------------|
A|------------|----------------|
E|------------|----------------|

-----------------------------
|  акорди, навчання, відео  |
|     http://akords.org     |
-----------------------------

 (голосів: 0)
   Інші пісні:
  • Я тебя люблю
  • Уходящая в ночь
  • Звёздный каталог
  • Ты такая полная
  • Не вечность
  •  
    Шановний відвідувач, Ви зайшли на сайт як незареєстрований користувач. Ми рекомендуємо Вам реєструватися або зайти на сайт під своїм ім'ям.

    Додавання коментаря

    Ім'я:*
    E-Mail:*
    Коментар:
    Введіть два слова, показані на зображенні: *
     
      

    BLIBL-створити сайт безкоштовно