|  
 
:  
  : :  
      ?    

  |

akords.org » » »

-  

GmF

BD#
Ƞ
D# F Gm
Ƞ
GmF
,
BD#
,
D#FGm
.
:
CmFBGm
,,
CmDGm
,.
CmFBGm
,,
CmDGm
-.
,
,
Ƞ
Ƞ,
Ѡ,
.

()
GmFB

1--------------------------------------
2-----3-1---------3-1---------3-1------
3---0-----3-2---0----3-2----0-----3-2--
4--------------------------------------
5--------------------------1-----------
6--3------------1----------------------


D#D#FGm
--------------------------------------------------------
-----3-1------3-1----------3-1--------3-1--------3-1----
---0-----3---0----3-2---0------3----0-----3-2--0-----3-2
-1---------1----------3---------------------------------
--------------------------------------------------------
----------------------------------3-----------3---------

(),
,
.
C-F-B-G-C-D-G

-----------------------------
|  , ,   |
|     http://akords.org     |
-----------------------------

 (: 0)
    :
  • ..
  •  
    , . '.

    ':*
    E-Mail:*
    :
    , : *
     
      

    BLIBL-