|  
 
:  
  : :  
      ?    

  |

akords.org » » » (3 )

- (3 ) 

EmF#Hm

GEm
Ƞ
F#AmH

mF#Hm

GEm
Ƞ
F#Hm

EmF#Hm
1---0-------0--------|--2-------2--------|------2-------2-----|
2-----0---0----------|----2---2----------|--------3---3-------|
3-------0-----------|------3-----------|----------4---------|
GEmF#
1---2-------2--------|---0-------0-------|------2-------2-----|
2-----2---2----------|-----0---0---------|--------2---2-------|
3-------3-----------|-------0----------|----------3---------|
AmHm
1---0-------0--------|----2-------2------|-------------------|
2-----1---1----------|------4---4--------|-------------------|
3-------2-----------|--------4---------|-------------------|


1

Ƞ
Ѡ,
Ѡ
Ѡ


EmF#Hm

GEm

AD

GH

AmEm

HmF#
,
2


Ƞ
ߠ
-


:
HmEmF#HmEmF#Hm
h--7-7-7-8--8-7-5-8-7---3-3-3-5---5-3-2-3-0-
HmEmADEmF#
h--7-7-7-8--8--5-10-8-7---3-3-3--5---5-3-2-

-----------------------------
|  , ,   |
|     http://akords.org     |
-----------------------------

 (: 1)
    :
  • (4 )
  • (2 )
  •  
    , . '.

    ':*
    E-Mail:*
    :
    , : *
     
      

    BLIBL-