|  
 
:  
  : :  
      ?    

  |

akords.org » » »

-  

:



E||---------------------|----------------------|---------------------|

B||---------------------|----------------------|---------------------|

G||---------------------|----------------------|---------------------|

D||----------4--4----5--|--------4-----5----4--|---------------------|

A||---------------------|-----------7----------|----------5--5----7--|

E||---------------------|----------------------|---------------------|







----------------------|---------------------|-----------------------|

----------------------|---------------------|-----------------------|

----------------------|---------------------|-----------------------|

----------------------|----------4--4----5--|------------7--5----4--|

--------5--4--7----5--|---------------------|------7--7-------------|

----------------------|---------------------|-----------------------|







---------------------|----------------------|------------------|

---------------------|----------------------|------------------|

---------------------|----------------------|------------------|

---------------------|----------------------|------------------|

----------5--5----7--|------7--5--4---------|------------------|

---------------------|-----------------6----|------------------|





:

----------------------|---------------------|----------------------|

----------------------|---------------------|----------------------|

----------------------|----------------6----|--9--------7----6--6--|

----------------------|---------8-----------|----------------------|

--7------9------10----|--9------------------|----------------------|

----------------------|---------------------|----------------------|







-------------------|----------------------|---------------------|

-------------------|----------------------|---------------------|

--------7----------|----------------------|--6------7------9----|

-------------------|----------7------9----|---------------------|

-------------------|--10------------------|---------------------|

-------------------|----------------------|---------------------|





1/2

----------------------|-------------------|----------------------|

--8--------7----------|-------------------|--10------8-----------|

----------------10b---|-------------------|----------------------|

----------------------|--------------9----|-----------------9----|

----------------------|-------------------|----------------------|

----------------------|-------------------|----------------------|







-----------------------|-------------------------|--------------------|

-----------------------|-------------------------|--------------------|

-----------------------|--12------11------9------|--------------------|

--12------11-----------|---------------------11--|--------12----------|

------------------9----|-------------------------|--------------------|

-----------------------|-------------------------|--------------------|







-----------------------|----------------------|-------------------|

-----------------------|----------------------|-------------------|

--9------11------12----|----------------------|-------------------|

-----------------------|--8------11------8----|--9----------------|

-----------------------|----------------------|-------------------|

-----------------------|----------------------|-------------------|







--7----------------||

--7----------------||

--7----------------||

--9----------------||

-------------------||

-------------------||

-----------------------------
|  , ,   |
|     http://akords.org     |
-----------------------------

 (: 1)
    :
  • (3 )
  • (4 )
  • (2 )
  •  
    , . '.

    ':*
    E-Mail:*
    :
    , : *
     
      

    BLIBL-