Зробити стартовою  |  Додати в вибране
 
Пошук по сайту:  
  логін: пароль:  
    Реєстрація на сайті   Нагадати пароль?    

Видавництво Симфонія | Книжкова фабрика

akords.org » К » Кукрыниксы » По раскрашенной душе (2 варіант)
Знайти необхідні акорди

Кукрыниксы - По раскрашенной душе (2 варіант)  Табулатура

Вступление:

B|-3-3-3--3-3-3-2-3-2-3-3----------------------------|
G|--------------------------------2-2-3-3------------| x2
D|-------------------------------------------3-2-3-2-|

B|-12-12-12-11-12-12-12-11-12-11-12-12-----------------------|
G|------------------------------------11-11-12-12------------|x2
D|-----------------------------------------------12-11-12-11-|

B|-3-3-3-2-3-3-3-2-3-2-3-3-----------------------------|
G|----------------------------------2-2-3-3------------|x2 Hm~~~
D|---------------------------------------------3-2-3-2-|

-----------------------------
|  акорди, навчання, відео  |
|     http://akords.org     |
-----------------------------

 (голосів: 0)
   Інші пісні:
  • По раскрашенной душе
  • Музыка в моей душе
  • Тореро (3 варіант)
  • День как день
  • Тореро (6 варіант)
  •  
    Шановний відвідувач, Ви зайшли на сайт як незареєстрований користувач. Ми рекомендуємо Вам реєструватися або зайти на сайт під своїм ім'ям.

    Додавання коментаря

    Ім'я:*
    E-Mail:*
    Коментар:
    Введіть два слова, показані на зображенні: *
     
      

    BLIBL-створити сайт безкоштовно