Зробити стартовою  |  Додати в вибране
 
Пошук по сайту:  
  логін: пароль:  
    Реєстрація на сайті   Нагадати пароль?    

Видавництво Симфонія | Книжкова фабрика

akords.org » К » Кукрыниксы » По раскрашенной душе
Знайти необхідні акорди

Кукрыниксы - По раскрашенной душе  Акорди

Hm	F
g|-7--7--7--6-7--7--7--7-7--6--7--7--7--7--3--3--4-4-6-6-

Hm Em F#
Что мне за роль выдала боль с головой
Hm Em F#
Нет мне мечты стать у черты роковой
Hm Em F#
И никогда я не просил, я так жил
Hm Em (Fm#) F#
Болью своей, кровью своей я не дорожил

Припев:
Hm D Em F#
По раскрашенной душе моей
Hm D Em F#
На обратной стороне написал: поверь
Hm D Em F#
Время разгребало в дым следы
Hm D
Что осталось мне теперь -
Em (Fm#) F# Hm
Собирать свои дары

По временам выпало нам по рукам
Быть красотой, стать высотой дуракам
Так я терпел, жизнью кипел, истину не пел
Долго не ждал, сил не терял, что же нужно вам?

Припев:

По раскрашенной душе моей
На обратной стороне написал: поверь
Время разгребало в дым следы
Что осталось мне теперь -
Собирать свои дары

Куплет:

g|----------------------------------------------------------
d|-4-4-2-4--4-4-2-4--5-2----4-4-2-4--4-4-2-4--5-2----4-4-2--
a|----------------------4------------------------4----------

g|----------------------------------------4-3-4-6-
d|-4--4-4-2-4--5-2----4-4-2-4--4-4-2-4--5---------
a|----------------4-------------------------------

Припев:

g|-4-6-7-4-9-6-7--2-3--4-6-7-4-9-6-7-2-2-2---4-6-7-4-9-6-7-
d|----------------------------------------4-5---------------

g|-----2-3--4-6-7-4-9-6-7-2-2-2-2-3--3-4-
d|---------------------------------------

-----------------------------
|  акорди, навчання, відео  |
|     http://akords.org     |
-----------------------------

 (голосів: 0)
   Інші пісні:
  • По раскрашенной душе (2 варіант)
  • Музыка в моей душе
  • Реки
  • Мой друг
  • Блюз субботнего вечера
  •  
    Шановний відвідувач, Ви зайшли на сайт як незареєстрований користувач. Ми рекомендуємо Вам реєструватися або зайти на сайт під своїм ім'ям.

    Додавання коментаря

    Ім'я:*
    E-Mail:*
    Коментар:
    Введіть два слова, показані на зображенні: *
     
      

    BLIBL-створити сайт безкоштовно