Зробити стартовою  |  Додати в вибране
 
Пошук по сайту:  
  логін: пароль:  
    Реєстрація на сайті   Нагадати пароль?    

Видавництво Симфонія | Книжкова фабрика

akords.org » К » Кукрыниксы » Небеса
Знайти необхідні акорди

Кукрыниксы - Небеса  Акорди

Intro, Guitar solo:
e|---------------------|---------------------------
B|---------------------|---------------------------
G|---------------------|---------------------------
D|--5/7--5-7---5-3-5---|---------------------------
A|---------------------|---3/5--3-5---1---3--------
E|---------------------|---------------------------


e|---------------------|---------------------------
B|---------------------|---------------------------
G|---------------------|---------------------------
D|--5/7--5-7---5-3-5---|---------------------------
A|---------------------|---3--3/5---1--------------
E|---------------------|---------------------------



Am
Шли покрытые туманом
G C
По оврагам и лугам
A# Am
В дружбе мчались с ураганом
Dm E
По столетьям и мирам


Am
Друг один меня заметил,
G C
Голову втащил в туман,
A# Am
На вопросы их ответил
Dm E
В этой жизни я пропал!!!

Guitar solo.

Ну тогда шагаем с нами
И смотри по сторонам
Ты увидел жизни мало
Чтобы как-то в ней пропасть!

Ты увидишь много павших
много доблестных обид
Людям просто это важно
Видеть, пятиться и пить

Guitar solo.

Ты вернёшься очень скоро
И научишься любить
Здесь поймёшь, что так не много
Так всё можно сохранить


Мы смириться не позволим
И тебя с собой ведём
Чтоб когда вернулся, вспомнил
Рассказал, что где почём...

-----------------------------
|  акорди, навчання, відео  |
|     http://akords.org     |
-----------------------------

 (голосів: 1)
   Інші пісні:
  • Небеса (2 варіант)
  • I Hope You Die
  • Badlands
  • Шалфей
  • Are You Ready
  •  
    Шановний відвідувач, Ви зайшли на сайт як незареєстрований користувач. Ми рекомендуємо Вам реєструватися або зайти на сайт під своїм ім'ям.

    Додавання коментаря

    Ім'я:*
    E-Mail:*
    Коментар:
    Введіть два слова, показані на зображенні: *
     
      

    BLIBL-створити сайт безкоштовно