Зробити стартовою  |  Додати в вибране
 
Пошук по сайту:  
  логін: пароль:  
    Реєстрація на сайті   Нагадати пароль?    

Видавництво Симфонія | Книжкова фабрика

akords.org » К » Коррозия Металла » Пятнадцать человек на сундук с мертвецом
Знайти необхідні акорди

Коррозия Металла - Пятнадцать человек на сундук с мертвецом  Табулатура

Intro:
e|------------------------------------------------|
B|------------------------------------------------|
G|----------------10-11-10------------------------|
D|-8-8-11-8-(6-8)-10-11-10-11-8-------------------|
A|-8-8-11-8-(6-8)-8--9--8--11-8-------------------|
E|-6-6-9--6-(4-6)----------9--6-/xxxx--(feedback)-|

Verse:
e|------------------------------------------------------------|
B|------------------------------------------------------------|
G|------------------------------------------------------------|
D|------------------------------------------------------------|
A|---------11-6--------------------------11-6-----------------|
E|-6-6-6-6-9--8--9-9-9-11-11-11--6-6-6-6-9--8--11-11-11-9-9-9-|

e|-----------------------------|
B|-----------------------------|
G|-15~-14~-13~-12~-------------|
D|-----------------17~-16~-15~-|
A|-----------------------------|
E|-----------------------------|

Chorus:
e|--------------------------------------------------------|
B|--------------------------------------------------------|
G|--------------------------------------------------------|
D|--------------------------------------------------------|
A|-1010101010101010-8-888-11-8-55555555-10-10-10-10-10-10-|
E|-8-8-8-8-8-8-8-8--6-666-9--6-33333333-8--8--8--8--8--8--|
P.M................. ... ........

e|-----------------------------------|
B|-----------------------------------|
G|-----------------------------------|
D|-----------------------------------|
A|9-8-7-6-8-7-6-5--------------------|
E|----------------12-11-10-9-8-7-6-5-|

Verse 2x
Chorus 2x

Solo:
e|------^---^---^-------------------------|
B|----------------------------------------|
G|-12b-12b-12b-12b-12-12b-12-12b-12b-12b--|
D|----------------------------------------|
A|----------------------------------------|
E|----------------------------------------|

E|---------------------------|
B|-15p13p12-15p13p12-12p10p9-|
G|---------------------------|
D|---------------------------|
A|---------------------------|
E|---------------------------|

e|------------------------------------------------|
B|-10p9p7-9p7p5-7p5-5p3p0-5p3p0-5p3p0-5p3p0-5p3p0-|
G|------------------------------------------------|
D|------------------------------------------------|
A|------------------------------------------------|
E|------------------------------------------------|

A.H. w/bar
E|-^--^--------/pickupb---|
B|-2-------------------a--|
G|----3///-----------r-|
D|------------------------|
A|-------------------------|
E|----*--------------------|

Solo:
e|-----------------------------------------------------------|
B|-----------------------------------------------------------|
G|-----------------------------------------------------------|
D|-----------------------------------------------------------|
A|------------------------------12-11-10-9-(on d?)-----------|
E|-8"---12-11-10-9-8-7-65--8"-------------11-10-9-8-(on a?)-|

e|---------------------------------------------------------|
B|---------------------------------------------------------|
G|---------------------------------------------------------|
D|-8--------------------------10------------------------10-|
A|-8-------------------%------10-------------------%----10-|
E|-6--------------------------8-------------------------12-|

e|-------------------------------------------------------------|
B|-------------------------------------------------------------|
G|-------------------------------------------------------------|
D|-8-7-6-5---------%-10-9-8-7------------12-11-10-9------------|
A|---------8-7-6-5------------10-9-8-7-%------------12-11-10-9-|
E|-------------------------------------------------------------|

e|---------------------------------------------------|
B|---------------------------------------------------|
G|---------------------------------------------------|
D|-8-888-11-8-111111-131313-8-888-11-8-131313-111111-|
A|---------------------------------------------------|
E|-A#----C#-A#-C#-----D#-----------------------------|

Interlude 2 2x
e|------------------------------|
B|------------------------------|
G|-10-10-1010-13-1212-1010-9-10-|
D|-F----------G#-G---------E----|
A|------------------------------|
E|------------------------------|

E|-12/12/12/-12--/-12/-12/12/,etc-12~~~-|
B|-harm------------/--------------------------|
G|---------------------------------------------|
D|---------------------------------------------|
A|---------------------------------------------|
E|---------------------------------------------|

End:
e|--------------------------------|
B|--------------------------------|
G|--------------------------------|
D|------------8-7-6-5-------------|
A|-8888-11-8----------8-7-6-5--8--|
E|-6666-9--6-------------------6--|

-----------------------------
|  акорди, навчання, відео  |
|     http://akords.org     |
-----------------------------

 (голосів: 0)
   Інші пісні:
  • I Miss You Live
  • Reebok Commercial
  • Reebok Commercial
  • Wheels Of Confusion
  • I Dont Have To Try
  •  
    Шановний відвідувач, Ви зайшли на сайт як незареєстрований користувач. Ми рекомендуємо Вам реєструватися або зайти на сайт під своїм ім'ям.

    Додавання коментаря

    Ім'я:*
    E-Mail:*
    Коментар:
    Введіть два слова, показані на зображенні: *
     
      

    BLIBL-створити сайт безкоштовно