Зробити стартовою  |  Додати в вибране
 
Пошук по сайту:  
  логін: пароль:  
    Реєстрація на сайті   Нагадати пароль?    

Видавництво Симфонія | Книжкова фабрика

akords.org » К » Коррозия Металла » Героин
Знайти необхідні акорди

Коррозия Металла - Героин  Табулатура

Tempo=120
Intro
(00:08-00:59)
GTR1
E|------------------|-----------------|
B|------------------|-----------------|
G|------------------|-----------------|
D|7-----------------|7----------------|
A|7------------5-7--|7------------5-7-|
E|5------5-7-8------|5------5-7-8-----|

E|------------------|-----------------|
B|------------------|-----------------|
G|------------------|-----------------|
D|7-----------------|7----------------|
A|7------------5-7--|7------------5-7-|
E|5------5-7-8------|5------5-7-8-----|

GTR2
E|------------------|-----------------|
B|------------------|-----------------|
G|------------------|-----------------|
D|7-----------------|7----------------|
A|7------------5-7--|7------------5-7-|
E|5------5-7-8------|5------5-7-8-----|

E|------------------|-----------------|
B|------------------|-----------------|
G|------------------|-----------------|
D|7-----------------|7----------------|
A|7------------5-7--|7------------5-7-|
E|5------5-7-8------|5------5-7-8-----|

E|------------------|-----------------|
B|------------------|-----------------|
G|------------------|-----------------|
D|7-----------------|7----------------|
A|7------------5-7--|7------------5-7-|
E|5------5-7-8------|5------5-7-8-----|

E|------------------|-----------------|
B|------------------|-----------------|
G|------------------|-----------------|
D|7-----------------|7----------------|
A|7------------5-7--|7------------5-7-|
E|5------5-7-8------|5------5-7-8-----|

E|------------------|-------------------|
B|------------------|-------------------|
G|------------------|-------------------|
D|10----------------|10-----------------|
A|10------------8-10|10------------8-10-|
E|8------8-10-11----|8------8-10-11-----|

E|------------------|-------------------|
B|------------------|-------------------|
G|------------------|-------------------|
D|10----------------|10-----------------|
A|10------------8-10|10------------8-10-|
E|8------8-10-11----|8------8-10-11-----|

E|------------------|-----------------|
B|------------------|-----------------|
G|------------------|-----------------|
D|7-----------------|7----------------|
A|7----------5-7-7--|7----------5-7-7-|
E|5--------8--------|5--------8-------|

E|------------------|-----------------|
B|------------------|-----------------|
G|------------------|-----------------|
D|7-----------------|7----------------|
A|7----------5-7-7--|7----------5-7-7-|
E|5--------8--------|5--------8-------|

E|------------------|-----------------|
B|------------------|-----------------|
G|------------------|-----------------|
D|7-----------------|7----------------|
A|7----------5-7-7--|7----------5-7-7-|
E|5--------8--------|5--------8-------|

E|------------------|-----------------|
B|------------------|-----------------|
G|------------------|-----------------|
D|7-----------------|7----------------|
A|7----------5-7-7--|7----------5-7-7-|
E|5--------8--------|5--------8-------|

E|--|
B|--|
G|--|
D|2-|
A|2-|
E|0-|

E|--|
B|--|
G|--|
D|2-|
A|2-|
E|0-|

Double time. Tempo=190
E|------------------|-------------------|
B|------------------|-------------------|
G|------------------|-------------------|
D|12---11---10------|12---11---10-------|
A|12---11---10------|12---11---10-------|
E|---------------0-0|---------------0-0-|

E|-------------------|-------------------|
B|-------------------|-------------------|
G|-------------------|-------------------|
D|12---11---10-------|12---11---10-------|
A|12---11---10-------|12---11---10-------|
E|---------------0-0-|---------------0-0-|

E|------------------|-------------------|
B|------------------|-------------------|
G|------------------|-------------------|
D|12---11---10------|12---11---10-------|
A|12---11---10------|12---11---10-------|
E|---------------0-0|---------------0-0-|

E|-------------------|-------------------|
B|-------------------|-------------------|
G|-------------------|-------------------|
D|12---11---10-------|12---11---10-------|
A|12---11---10-------|12---11---10-------|
E|---------------0-0-|---------------0-0-|

E|------------------|-------------------|
B|------------------|-------------------|
G|------------------|-------------------|
D|12---11---10------|12---11---10-------|
A|12---11---10------|12---11---10-------|
E|---------------0-0|---------------0-0-|

E|-------------------|-------------------|
B|-------------------|-------------------|
G|-------------------|-------------------|
D|12---11---10-------|12---11---10-------|
A|12---11---10-------|12---11---10-------|
E|---------------0-0-|---------------0-0-|

E|------------------|------------------|-------------------|
B|------------------|------------------|-------------------|
G|------------------|------------------|-------------------|
D|12---11---10------|12---11---10------|12---11---10-------|
A|12---11---10------|12---11---10------|12---11---10-------|
E|---------------0-0|---------------0-0|---------------0-0-|

E|------------------|------------------|-------------------|
B|------------------|------------------|-------------------|
G|------------------|------------------|-------------------|
D|12---11---10------|12---11---10------|12---11---10-------|
A|12---11---10------|12---11---10------|12---11---10-------|
E|---------------0-0|---------------0-0|---------------0-0-|

End Of Intro
_________________________
Main riff
(00:59-01:45)
verse a
E|------------------------------------|
B|------------------------------------|
G|------------------------------------|
D|----16-----17-----16----17-----1617-|
A|----16-----17-----16----17-----1617-|
E|0-0----0-0----0-0----0-0---0-0------|

E|-------------------------------------|
B|-------------------------------------|
G|-------------------------------------|
D|----16-----17-----16-----17-----1617-|
A|----16-----17-----16-----17-----1617-|
E|0-0----0-0----0-0----0-0----0-0------|

E|------------------------------------|
B|------------------------------------|
G|------------------------------------|
D|----16-----17-----16----17-----1617-|
A|----16-----17-----16----17-----1617-|
E|0-0----0-0----0-0----0-0---0-0------|

E|-------------------------------------|
B|-------------------------------------|
G|-------------------------------------|
D|----16-----17-----16-----17-----1617-|
A|----16-----17-----16-----17-----1617-|
E|0-0----0-0----0-0----0-0----0-0------|

verse b
E|------------------------------------|
B|------------------------------------|
G|------------------------------------|
D|----14-----13-----14----13-----1314-|
A|----14-----13-----14----13-----1314-|
E|0-0----0-0----0-0----0-0---0-0------|

E|------------------------------------|
B|------------------------------------|
G|------------------------------------|
D|----14-----13-----14----13-----1314-|
A|----14-----13-----14----13-----1314-|
E|0-0----0-0----0-0----0-0---0-0------|

________________________________________

Verse 1(gtr1 playing main riff verse b)
01:12-01:17
E|-15t12t10-15t12t10-15t12t10-15t12t10-|
B|-------------------------------------|
G|-------------------------------------|
D|-------------------------------------|
A|-------------------------------------|
E|-------------------------------------|

E|-15t12t10-15t12t10-15t12t10-15t12t10-|
B|-------------------------------------|
G|-------------------------------------|
D|-------------------------------------|
A|-------------------------------------|
E|-------------------------------------|

E|-----------------------------------------|
B|-10h12p10h12p10h12p10h12p10h12p10h12-----|
G|-------------------------------------10v-|
D|-----------------------------------------|
A|-----------------------------------------|
E|-----------------------------------------|

verse 2(gtr1 playing main riff verse b )
(01:31-01:36)
E|----------^v12~~~~-|
B|^v12~~~~~----------|
G|-------------------|
D|-------------------|
A|-------------------|
E|-------------------|

Bridge (gtr1>r2)
(01:45-01:54)
E|-------------------|------------|
B|-------------------|------------|
G|-------------------|------------|
D|-9-----------------|9-----------|
A|-7---------9-------|7---------7-|
E|------------7------|----------5-|

Chorus (gtr1>r2)
(01:54-02:14)
E|-----------------------------|-------------------------------|
B|-----------------------------|-------------------------------|
G|-----------------------------|-------------------------------|
D|8--8--7-------8--8--7--------|8--8--5------------------------|
A|8--8--7-------8--8--7--------|8--8--5--------9---7---5---3---|
E|6--6--5-5-5-5-6--6--5--5-5-5-|6--6--7--5-5-5-7-0-5-0-3-0-1-0-|

E|-----------------------------|-------------------------------|
B|-----------------------------|-------------------------------|
G|-----------------------------|-------------------------------|
D|8--8--7-------8--8--7--------|8--8--5------------------------|
A|8--8--7-------8--8--7--------|8--8--5--------9---7---5---3---|
E|6--6--5-5-5-5-6--6--5--5-5-5-|6--6--7--5-5-5-7-0-5-0-3-0-1-0-|

E|------------------------------|-----------------------------|
B|------------------------------|-----------------------------|
G|------------------------------|-----------------------------|
D|8--8--7--------8--8--7--------|8--8--5----------------------|
A|8--8--7--------8--8--7--------|8--8--5--------2---2---2---2-|
E|6--6--5--5-5-5-6--6--5--5-5-5-|6--6--7--5-5-5-0---0---0---0-|

verse 3(gtr1 playing main riff verse b)
(02:19-02:23)
E|---------------------------------------|
B|---------------------------------------|
G|----------9--------------9-----------9-|
D|9---12-------9----12--------9---12-----|
A|---------------------------------------|
E|---------------------------------------|

verse 3(gtr1 playing main riff verse b)
(02:38-02:42)
E|15-12-15-12-------------15--12--17--12--15-------------------|
B|------------15-12----12----------------------15--12--15------|
G|------------------14-------------------------------------14v-|
D|-------------------------------------------------------------|
A|-------------------------------------------------------------|
E|-------------------------------------------------------------|

Bridge
(02:52-03:01)
Chorus
(03:01-03:19)
Verse 4(gtr1 only, gtr2 starting solo)
(03:20-03:28)
E|---------------------------|--------------------------|
B|---------------------------|--------------------------|
G|---------------------------|--------------------------|
D|---------------------------|--------------------10--9-|
A|6h7-----4h5-----2h3-----1h2|6h7-----4h5-----2h3-10--9-|
E|----0-0-----0-0-----0-0----|----0-0-----0-0-----8---7-|

Guitar Solo
(03:24-04:06)
Not ready yet.
Bridge
(04:06-04:15)
chorus

-----------------------------
|  акорди, навчання, відео  |
|     http://akords.org     |
-----------------------------

 (голосів: 1)
   Інші пісні:
  • Boogie Man
  • Kiss Me Where It Smells Funny
  • Прерванная любовь или Арбузная корка
  • Another Holy War
  • Dammit
  •  
    Шановний відвідувач, Ви зайшли на сайт як незареєстрований користувач. Ми рекомендуємо Вам реєструватися або зайти на сайт під своїм ім'ям.

    Додавання коментаря

    Ім'я:*
    E-Mail:*
    Коментар:
    Введіть два слова, показані на зображенні: *
     
      

    BLIBL-створити сайт безкоштовно