Зробити стартовою  |  Додати в вибране
 
Пошук по сайту:  
  логін: пароль:  
    Реєстрація на сайті   Нагадати пароль?    

Видавництво Симфонія | Книжкова фабрика

akords.org » К » Король и Шут » Воспоминания о былой любви
Знайти необхідні акорди

Король и Шут - Воспоминания о былой любви  Табулатура

E|-----------------------------------------------2-3-2~~|
H|------------------------------------------------------|
G|--------0-2-3--0-2-3-5-3-2-0-----0-2-3-2-0------------|
D|-0-2-4-----------------------3-3----------------------|
A|-------------------------------------------6-5--------|
E|------------------------------------------------------|

-----------------------------
|  акорди, навчання, відео  |
|     http://akords.org     |
-----------------------------

 (голосів: 0)
   Інші пісні:
  • Воспоминания о былой любви (2 варіант)
  • Свет былой любви
  • Воспоминания о былой любви (3 варіант)
  • Воспоминания о былой любви (4 варіант)
  • Воспоминание из детства
  •  
    Шановний відвідувач, Ви зайшли на сайт як незареєстрований користувач. Ми рекомендуємо Вам реєструватися або зайти на сайт під своїм ім'ям.

    Додавання коментаря

    Ім'я:*
    E-Mail:*
    Коментар:
    Введіть два слова, показані на зображенні: *
     
      

    BLIBL-створити сайт безкоштовно