Зробити стартовою  |  Додати в вибране
 
Пошук по сайту:  
  логін: пароль:  
    Реєстрація на сайті   Нагадати пароль?    

Видавництво Симфонія | Книжкова фабрика

akords.org » К » Король и Шут » Ведьма и осел (3 варіант)
Знайти необхідні акорди

Король и Шут - Ведьма и осел (3 варіант)  Акорди

Вступление:

E|----5----8----5----3----5----8----5-|
B|----5----8----5----3----5----8----5-|
G|------------------------------------|
D|------------------------------------|
A|------------------------------------|
E|------------------------------------|

Основная мелодия для куплетов:

Am F
E|------------------------------------|
B|------------------------------------|
G|------------------------------------|
D|--------7-------------------5-------|
A|7-7-5-7---7-5-7-------7-5-7---7-5-3-|
E|------------------------------------|
Dm Am
E|------------------------------------|
B|------------------------------------|
G|----------------------------4-------|
D|----7-5-------------------7---7-5---|
A|--------7-5-3---------------------7-|
E|5-5-------------------5-5-----------|

F
E|------------------------------------|
B|------------------------------------|
G|--------------------------7-5-------|
D|----7-5-----------------------7-5-3-|
A|--------7-5-7-----------------------|
E|5-5-------------------5-5-----------|

Dm Am
E|------------------------------------|
B|------------------------------------|
G|----------------------------4-------|
D|----7-5-------------------7---7-5---|
A|--------7-5-3---------------------7-|
E|5-5-------------------5-5-----------|

Am
В детстве цыганка мне одна
F
Предсказала, будто я,
Dm
Если сильно полюблю,
Am
То любимого сгублю,
Что измены не прощу
F
И жестоко отомщу,
Dm
Не специально, но со зла
Am
Превращу его в осла.

Am
Он очень милым парнем был,
F
Но зачем он изменил ?
Dm
И тогда все началось -
Am
Предсказание сбылось,
И внезапно над собой
F
Потеряла я контроль,
Dm
И любимый стал стонать,
Am
Серой шерстью обрастать.

Припев :

F G Am
Ведьма я, эх, ведьма я -
Dm Am7
Такая вот нелегкая судьба моя !
F G Am
Силой я наделена,
Dm Am7
Но на беду любовь моя обречена...

Am
И мой любимый навсегда
F
Жить остался у меня,
Dm
И за мною по пятам
Am
Он ходил и тут и там.
Замечала я порой,
F
Как страдает милый мой,
Dm
И жалела я осла -
Am
На лугу его посла.

Am
Я все хотела как-нибудь
F
Облик милого вернуть,
Dm
Я старалась как могла,
Am
Но ничем не помогла.
Он копытами стучал,
F
По-ослиному кричал
Dm
И хвостом своим вертел -
Am
Человеком быть хотел.

Припев.

Am
Лишь понял он, что обречен
F
До заката своих дней
Dm
Быть страдающим ослом
Am
Под опекою моей.
И в итоге наконец,
F
Он приблизил свой конец,
Dm
Что-то выпил, что-то съел -
Am
И бедняга околел.

Припев.

-----------------------------
|  акорди, навчання, відео  |
|     http://akords.org     |
-----------------------------

 (голосів: 0)
   Інші пісні:
  • Ведьма и осел
  • Ведьма и осел (2 варіант)
  • Не Оставляй Меня Любимый
  • Сосиска (2 варіант)
  • Без меня
  •  
    Шановний відвідувач, Ви зайшли на сайт як незареєстрований користувач. Ми рекомендуємо Вам реєструватися або зайти на сайт під своїм ім'ям.

    Додавання коментаря

    Ім'я:*
    E-Mail:*
    Коментар:
    Введіть два слова, показані на зображенні: *
     
      

    BLIBL-створити сайт безкоштовно