Зробити стартовою  |  Додати в вибране
 
Пошук по сайту:  
  логін: пароль:  
    Реєстрація на сайті   Нагадати пароль?    

Видавництво Симфонія | Книжкова фабрика

akords.org » К » Корни » Я Теряю Корни (5 варіант)
Знайти необхідні акорди

Корни - Я Теряю Корни (5 варіант)  Табулатура

Distorted guitar:
|---------------------------------------
|-----------------------^-^-^-----------
|---------2--4--6-6--6-10-8-8-6--4-6--2-
|-x-x-x-x-2--4------------------------2-
|-x-x-x-x-2--2------------------------2-
|-x-x-x-x-0---------------------------0-
где: ^ -подтяжка
     x -заглушенные стуны

-----------------------------
|  акорди, навчання, відео  |
|     http://akords.org     |
-----------------------------

 (голосів: 0)
   Інші пісні:
  • Я Теряю Корни (2 варіант)
  • Я Теряю Корни (7 варіант)
  • Я Теряю Корни (3 варіант)
  • Я Теряю Корни
  • Я Теряю Корни (6 варіант)
  •  
    Шановний відвідувач, Ви зайшли на сайт як незареєстрований користувач. Ми рекомендуємо Вам реєструватися або зайти на сайт під своїм ім'ям.

    Додавання коментаря

    Ім'я:*
    E-Mail:*
    Коментар:
    Введіть два слова, показані на зображенні: *
     
      

    BLIBL-створити сайт безкоштовно