Зробити стартовою  |  Додати в вибране
 
Пошук по сайту:  
  логін: пароль:  
    Реєстрація на сайті   Нагадати пароль?    

Видавництво Симфонія | Книжкова фабрика

akords.org » К » Конец Фильма » Женщина, с которой я переспал
Знайти необхідні акорди

Конец Фильма - Женщина, с которой я переспал  Акорди

Am                             Dm
Я ничуть не удивлюсь, узнав, что с кем-то другим
E Am
Она в этот вечер целуется.
Am Dm
Объективная реальность с восприятием моим
E Am
Никак не стыкуется.
Am Dm
Просто женщина, с которой я переспал,
E Am
Переспал, переспал
Am Dm
Стала женщиной, с которой я перестал,
E Am
Встречаться. О, йе!

Что значительным и важным лишь вчера казалось мне,
То сегодня для меня не существенно,
Врач сказал, рефлексы в норме, патологии нет
И сориентирован я естественно.

Просто женщина, с которой я переспал,
Переспал, переспал,
Стала женщиной, с которой я перестал,
Встречаться. О, йе!

Разве думал я, что буду в стельку пьяный лежать
И стонать, как пружины железные?
Разве думал я, что буду остро так переживать
И реагировать так болезненно?

Из-за женщины, с которой я переспал,
Переспал, переспал,
Из-за женщины, с которой я перестал
Встречаться. О, йе!

E|--------------------------------------------------0---0-----|
B|-5-3-1-0-------3-1-0---------5---3-1-0----------------------|
G|----------2-----------2-0---------------2--10---1---1---1-2-|
D|-------------3-------------2--------------------------------|
A|------------------------------------------------------------|
E|------------------------------------------------------------|
Это соло играется в начале песни с гитарой и в проигрышах.

-----------------------------
|  акорди, навчання, відео  |
|     http://akords.org     |
-----------------------------

 (голосів: 0)
   Інші пісні:
  • Стеклянное сердце
  • Скотник
  • Песня, которой нет
  • Бандерлоги
  • Ты тоньше
  •  
    Шановний відвідувач, Ви зайшли на сайт як незареєстрований користувач. Ми рекомендуємо Вам реєструватися або зайти на сайт під своїм ім'ям.

    Додавання коментаря

    Ім'я:*
    E-Mail:*
    Коментар:
    Введіть два слова, показані на зображенні: *
     
      

    BLIBL-створити сайт безкоштовно