Зробити стартовою  |  Додати в вибране
 
Пошук по сайту:  
  логін: пароль:  
    Реєстрація на сайті   Нагадати пароль?    

Видавництво Симфонія | Книжкова фабрика

akords.org » К » Кому вниз » Мамай (2 варіант)
Знайти необхідні акорди

Кому вниз - Мамай (2 варіант)  Табулатура

інтро:
C5 D5 A5 C
E||----------------|--------------------|
B||----------------|--------------------|
G||----------------|--------------------|
D||----------5--7--|--2---2----2---2-2--|
A||----------3--5--|--0-----0--3-----3--|
E||----------------|--------------------|


D A A5 C5
--------------------|--------------------|
--------------------|--------------------|
--------------------|--------------------|
--4---4-4--7-----7--|--2---2----5---5-x--|
--5-----5-----7-----|--0-----0--3---3-x--|
--------------------|--------------------|


F5 E5 D5 C5 C5 D5 A5 C
---------------------|--------------------|
---------------------|--------------------|
---------------------|--------------------|
--10--9--7--5--5--7--|--2---2----2---2-2/-|
--8---7--5--3--3--5--|--0-----0--3-----3/-|
---------------------|--------------------|


D A C5 D5 A5 G5 A G
--------------------|--------------------|----------------||
--------------------|--------------------|----------------||
--------------------|--------------------|----------------||
--4---4----7--5--7--|--2---2----5---5-x--|--7--5----------||
--5-----5--7--3--5--|--0-----0--5-----5--|--7--5----------||
--------------------|--------------------|----------------||



e G D e
біг небом крилатий пес,
e G A
біг манівцями небес.
e G D e
крилами бив, що хотів те й робив
C D e
пес із блакитних небес.

по-під небом стояв зі списів древній ліс,
ліс зі списів був нівроку,
зі списів козаків, що не ступиш і кроку,
під небом стояв древній ліс.

ріс той ліс, та невдовзі проріс
дрібним буденним вівсом,
виріс овес до саменьких небес,
виріс овес до небес.

ріс той ліс, а чи був взагалі отой ліс
може був, та нема того лісу
був той спис та заріс, і нема того списа
і овес до саменьких небес

приспів:
e C G D
а десь там ген, росте кривий дуб
e C G
на тім дубі повісився дід
e D G C
надто дивний світ остогид
e C G Dsus2 e
йому вкрай та й повісився дід на ймення мамай

bridge:
e e D e | G G D G D | e e D e | G D D e

і срав пес на той овес
срав і не шкодовува псов'я
нехай шкоди не буде й тому вівсові
на який насрав отой пес

приспів:
а десь там ген, росте кривий дуб
на тім дубі повісився дід
надто дивний світ остогид йому вкрай
та й повісився дід на ймення мамай


Dsus2:
E||--0----||
B||--3----||
G||--2----||
D||--0----||
A||-------||
E||-------||

-----------------------------
|  акорди, навчання, відео  |
|     http://akords.org     |
-----------------------------

 (голосів: 3)
   Інші пісні:
  • Мамай
  • Буйними вітрами
  • При каноні стояв
  • Не спи, моя рідна земля
  • Колискова
  •  
    Шановний відвідувач, Ви зайшли на сайт як незареєстрований користувач. Ми рекомендуємо Вам реєструватися або зайти на сайт під своїм ім'ям.

    Додавання коментаря

    Ім'я:*
    E-Mail:*
    Коментар:
    Введіть два слова, показані на зображенні: *
     
      

    BLIBL-створити сайт безкоштовно