|  
 
:  
  : :  
      ?    

  |

akords.org » » » (7 )

- (7 ) 


HmDA
E||--0--------0--------|--0-------------------|------------12----10-9-|
B||--7--------7--------|--7------3-5t3--5--3--|-----------------------|
G||--------------------|----------------------|-----------------------|
D||--------------------|----------------------|-----------------------|
A||--------------------|----------------------|-----------------------|
E||--------------------|----------------------|-----------------------|

----------------------------|-------------------|-----------------------|
--10------------------------|-------------------|-----------------------|
-------11-------------------|-------------------|-----------------------|
------------12--11--9--7----|-------------------|-----------------------|
----------------------------|--9----------------|-----------------------|
----------------------------|-------------------|--2--3--2--3--2--------|

--------------------------0-----------|--------------------|
-----------------------0-----3--2-----|--2--------------7--|
--------------------2--------------2--|--------------------|
-----------0--2--4--------------------|--------------------|
-----0--2-----------------------------|--------------------|
--2-----------------------------------|--------------------|

--10-----9-----7--9-7-5--7--|--7--------5--7--5--12--|
------7-----7---------------|------------------------|
----------------------------|------------------------|
----------------------------|------------------------|
----------------------------|------------------------|
----------------------------|------------------------|

----12----12--12--10----9--|----------------------|--------------------|
---------------------------|--10--------10--------|--5--3-3------------|
---------------------------|----------------------|--------------------|
---------------------------|----------------------|--------------------|
---------------------------|----------------------|--------------------|
---------------------------|----------------------|--------------------|

----------------------|--14-12-10----17-14-12-10-14-12-10----17-14-10-14-|
--0---3---5--7--------|-----------10----------------------10-------------|
----------------------|--------------------------------------------------|
----------------------|--------------------------------------------------|
----------------------|--------------------------------------------------|
----------------------|--------------------------------------------------|
HmEm(2)A
--12--------------------|---------------------|---------------------|
------------------------|---------------------|-----------7----7----|
------------------------|-----------4----6----|--7------------------|
------------5----5-7-5--|--4------------------|---------------------|
------------------------|---------------------|---------------------|
------------------------|---------------------|---------------------|

------------------------|---------------------|
--8----7-8-7--5----3----|--10----------7------|
------------------------|---------------------|
------------------------|---------------------|
------------------------|---------------------|
------------------------|---------------------|

-----------------------------------|-----------------------------------|
----15------14--12--10--8--7--8-10-|--12--8-7-8-10-8-7-5-3-5-7-5-3-2-0-|
-----------------------------------|-----------------------------------|
-----------------------------------|-----------------------------------|
-----------------------------------|-----------------------------------|
-----------------------------------|-----------------------------------|

-------------------------|--10--9-----------------------|---------------------|
----0-2-0------------10--|---------10-------------------|---------------------|
--2-------2--------------|-------------11---------------|-----------4----6----|
-------------------------|-----------------12----5-7-5--|--4------------------|
-------------------------|------------------------------|---------------------|
-------------------------|------------------------------|---------------------|

---------------------|------------------------|--------------------------------|
-----------7----7----|--8----7-8-7--5----3----|--10---10---10---10---10----10--|
--7/-----------------|------------------------|--------------------------------|
---------------------|------------------------|--------------------------------|
---------------------|------------------------|--------------------------------|
---------------------|------------------------|--------------------------------|

------------------------|------------------------------|
--12----------12--10----|--12--10----12--10----12--10--|
------------------------|------------------------------|
------------------------|------------------------------|
------------------------|------------------------------|
------------------------|------------------------------|
GF#Ab
---------------------------|-----------------------|----------------------|
--10--12--12--10--5--------|----7--5--3--10--------|--5----3------5h-7h---|
---------------------------|-----------------------|----------------------|
---------------------------|-----------------------|----------------------|
---------------------------|-----------------------|----------------------|
---------------------------|-----------------------|----------------------|

-------------------|--------------0--2--3--5--7--5--3--2--|
--3----------------|-----0--2--3--------------------------|
-------------------|--3-----------------------------------|
-------------------|--------------------------------------|
-------------------|--------------------------------------|
-------------------|--------------------------------------|

--------------1--3--4--6--8--6--4--3--|--4----------------|------|------||
--0--1--3--4--------------------------|-------------------|------|------||
--------------------------------------|-------------------|------|------||
--------------------------------------|-------------------|------|------||
--------------------------------------|-------------------|------|------||
--------------------------------------|-------------------|------|------||

-----------------------------
|  , ,   |
|     http://akords.org     |
-----------------------------

 (: 0)
    :
  • ! (2 )
  • ! (2 )
  • (2 )
  • ! (5 )
  •  
    , . '.

    ':*
    E-Mail:*
    :
    , : *
     
      

    BLIBL-