|  
 
:  
  : :  
      ?    

  |

akords.org » » » (6 )

- (6 ) 

VERSE1:
VoiceE|----------------------------------|
H|----------------------------------|
G|----------------------------------|
D|--------------------------8----6--|
A|----------------------------------|
E|------------------------Na-do|
||
SynthE|--3-------3-------3-------3-------|
H|--4-------4-------4-------4-------|
G|--5-------5-------5-------5-------|
D|----------------------------------|
A|----------------------------------|
E|----------------------------------|

VoiceE|--------------------------------------------------------------------|
H|------------------------------8-8---9-----8-6--9----8------8------8-|
G|----------5-----7-8-------------------------------------------------|
D|----5-5-------------------------------------------------------------|
A|--------------------------------------------------------------------|
E|-mnoyuti-shina,nebopol-noyedozhdya.Dozhd\'pro|
|||
SynthE|--3-------3-------3-------3-------|-4-------4-------3-------3-------|
H|--4-------4-------4-------4-------|-6-------6-------4-------4-------|
G|--5-------5-------5-------5-------|-5-------5-------5-------5-------|
D|----------------------------------|---------------------------------|
A|----------------------------------|---------------------------------|
E|----------------------------------|---------------------------------|

VoiceE|--------------------------------------------------------------------|
H|--9-8-----6----9--8------8--6-------6-------------------------------|
G|---------------------------------8-------8--7-----------------------|
D|------------------------------------------------------------8---6---|
A|--------------------------------------------------------------------|
E|hoditskvoz\'menya,nobo-libol\'shenet.Podho-|
|||
SynthE|--4-------4-------3-------3-------|-1-------1-------1-------1-------|
H|--6-------6-------4-------4-------|-3-------3-------3-------3-------|
G|--5-------5-------5-------5-------|-3-------3-------3-------3-------|
D|----------------------------------|---------------------------------|
A|----------------------------------|---------------------------------|
E|----------------------------------|---------------------------------|

VoiceE|--------------------------------------------------------------------|
H|----------------------------8--8----9--8--6--9---8---------8----8---|
G|-----------5-7-----8------------------------------------------------|
D|--5--5--------------------------------------------------------------|
A|--------------------------------------------------------------------|
E|lodnyyshyopotzvyozdmysozhgliposledniymost,ivsyov|
|||
SynthE|--3-------3-------3-------3-------|-4-------4-------3-------3-------|
H|--4-------4-------4-------4-------|-6-------6-------4-------4-------|
G|--5-------5-------5-------5-------|-5-------5-------5-------5-------|
D|----------------------------------|---------------------------------|
A|----------------------------------|---------------------------------|
E|----------------------------------|---------------------------------|

VoiceE|--------------------------------------------------------------------|
H|--9---8---6--9-8----------8--6------6-------------------6-----------|
G|--------------------------------8------8--7------------------8---7--|
D|--------------------------------------------------------------------|
A|--------------------------------------------------------------------|
E|bezdnusorvalos\'-svobodnymstanuyaotzlai|
|||
SynthE|--4-------4-------3-------3-------|-1-------1-------1-------1-------|
H|--6-------6-------4-------4-------|-3-------3-------3-------3-------|
G|--5-------5-------5-------5-------|-3-------3-------3-------3-------|
D|----------------------------------|---------------------------------|
A|----------------------------------|---------------------------------|
E|----------------------------------|---------------------------------|

VoiceE|--------------------------------------------------------------------|
H|--------------------------------------------------------------------|
G|-8---7--5------------5----7---5-----4--------4---5--7------8----7---|
D|-------------------------------------------5-------------5----------|
A|--------------------------------------------------------------------|
E|otdobra.Mo-yadu-shabylanalez-viino-|
|||
SynthE|----------------------------------|---------------------------------|
H|----------------------------------|-3-------3-------3-------3-------|
G|--5-------5-------5-------5-------|-4-------4-------4-------4-------|
D|--6-------6-------6-------6-------|-5-------5-------5-------5-------|
A|--6-------6-------6-------6-------|-5-------5-------5-------5-------|
E|----------------------------------|---------------------------------|
(1:31-1:43)
CHORUS:
VoiceE|--------------------------------------------------------------------|
H|--------------------------------------------------------------------|
G|--5-----------------------------------------------------------------|
D|--------------------------------------------------------------------|
A|--------------------------------------------------------------------|
E|zha.-------------------------------------------------------------|
|||
Gtr.E|--3-------3-----3-3-3-3---3-3-3---|-6---6---6---6-6-6-6-6---6---6-6-|
H|--4-------4-----4-4-4-4---4-4-4---|-8---8---8---8-8-6-6-6---6---6-6-|
G|--5-------5-----5-5-5-5---5-5-5---|-8---8---8---8-8-7-7-7---7---7-7-|
D|--5-------5-----5-5-5-5---5-5-5---|-8---8---8---8-8-8-8-8---8---8-8-|
A|--3-------3-----3-3-3-3---3-3-3---|-6---6---6---6-6-8-8-8---8---8-8-|
E|----------------------------------|-----------------6-6-6---6---6-6-|
|||
BassG|----------------------------------|---------------------------------|
D|----------------------------------|---------------------------------|
A|--3---------------3-5-3-------3-5-|-6-----------6-5-3---------------|
E|----------------3-----------------|-------------------6-6-----------|

Yaby
Gtr.E|--3-------3-----3-3-3-3---3-3-3---|-6---6---6-6-6-6-6---------------|
H|--4-------4-----4-4-4-4---4-4-4---|-8---8---8-8-8-8-6---------------|
G|--5-------5-----5-5-5-5---5-5-5---|-8---8---8-8-8-8-7---R-----------|
D|--5-------5-----5-5-5-5---5-5-5---|-8---8---8-8-8-8-8---E-----------|
A|--3-------3-----3-3-3-3---3-3-3---|-6---6---6-6-6-6-8---S-----------|
E|----------------------------------|---------------------T-----------|
(1:44-2:18)
VERSE2:
VoiceE|--------------------------------------------------------------------|
H|------------------------------8--8--9-----8----6--9--8-------8---8--|
G|----------5----7--8-------------------------------------------------|
D|--5-----5-----------------------------------------------------------|
A|--------------------------------------------------------------------|
E|mogstobo-yubyt\',yabymogprovsyozabyt\',yaby|
|||
Gtr.E|--3-------3-----3-3-3-3---3-3-3---|-4-------4---4-4-3-3-3---3---3---|
H|--4-------4-----4-4-4-4---4-4-4---|-6-------6---6-6-4-4-4---4---4---|
G|--5-------5-----5-5-5-5---5-5-5---|-5-------5---5-5-5-5-5---5---5---|
D|--5-------5-----5-5-5-5---5-5-5---|-3-------3---3-3-5-5-5---5---5---|
A|--3-------3-----3-3-3-3---3-3-3---|-----------------3-3-3---3---3---|
E|----------------------------------|---------------------------------|

VoiceE|--------------------------------------------------------------------|
H|--9----8--6-----9-8-------8-6-------6-------------------------------|
G|---------------------------------8-------8--7-----------------------|
D|---------------------------------------------------------------8-6--|
A|--------------------------------------------------------------------|
E|mogtebyalyubit\',noe-tolish\'igra.Vshume|
|||
Gtr.E|--4-------4---4-4-3-3-3---3---3---|-1-------1-----1-1-1-1---1---1---|
H|--6-------6---6-6-4-4-4---4---4---|-3-------3-----3-3-3-3---3---3---|
G|--5-------5---5-5-5-5-5---5---5---|-3-------3-----3-3-3-3---3---3---|
D|--3-------3---3-3-5-5-5---5---5---|-3-------3-----3-3-3-3---3---3---|
A|------------------3-3-3---3---3---|-1-------1-----1-1-1-1---1---1---|
E|----------------------------------|---------------------------------|

VoiceE|----------------------------------------------------8---------------|
H|------------------------------8---8-9-8----6-----------------8--8---|
G|----------5-----7-8--------------------------8----------------------|
D|--5--5--------------------------------------------------------------|
A|--------------------------------------------------------------------|
E|vetrazaspinoyyazabudugolostvoy,iot|
|||
Gtr.E|--3-------3-------3-------3-------|-4-------4-------3-------3-------|
H|--4-------4-------4-------4-------|-6-------6-------4-------4-------|
G|--5---|-|-5---|-|-5---|-|-5---|-|-|-5---|-|-5---|-|-5---|-|-5---|-|-|
D|--5---|-|-5---|-|-5---|-|-5---|-|-|-4---|-|-4---|-|-5---|-|-5---|-|-|
A|--3---|-|-3---|-|-3---|-|-3---|-|-|-4---|-|-4---|-|-3---|-|-3---|-|-|
E|--3-------3-------3-------3-------|-4-------4-------3-------3-------|

VoiceE|--------------------------------------------------------------------|
H|--9----8--6---9--8-------8--6-------6-------------------------------|
G|----------------------------------8---8-----7---------------8----7--|
D|--------------------------------------------------------------------|
A|--------------------------------------------------------------------|
E|toylyubvizemnoy,chtonasszhigalavprah,yasho-|
|||
Gtr.E|--4-------4-------3-------3-------|-1-------1-------1-------1-------|
H|--6-------6-------4-------4-------|-3-------3-------3-------3-------|
G|--5---|-|-5---|-|-5---|-|-5---|-|-|-3---|-|-3---|-|-3---|-|-3---|-|-|
D|--4---|-|-4---|-|-5---|-|-5---|-|-|-3---|-|-3---|-|-3---|-|-3---|-|-|
A|--4---|-|-4---|-|-3---|-|-3---|-|-|-1---|-|-1---|-|-1---|-|-1---|-|-|
E|--4-------4-------3-------3-------|-1-------1-------1-------1-------|

VoiceE|--------------------------------------------------------------------|
H|--------------------------------------------------------------------|
G|--8-----7-5----------5----7---5-----4--------4----5--7---------8--7-|
D|-----------------------------------------5--------------5-----------|
A|--------------------------------------------------------------------|
E|dilsuma.Vmo-yeydu-shenetbol\'shemestadlyate-|
|||
Gtr.E|--4-------4-------4-------4-------|-3-------3-------3-------3-------|
H|--4-------4-------4-------4-------|-3-------3-------3-------3-------|
G|--5---|-|-5---|-|-5---|-|-5---|-|-|-4---|-|-4---|-|-4---|-|-4---|-|-|
D|--6---|-|-6---|-|-6---|-|-6---|-|-|-5---|-|-5---|-|-5---|-|-5---|-|-|
A|--6---|-|-6---|-|-6---|-|-6---|-|-|-5---|-|-5---|-|-5---|-|-5---|-|-|
E|--4-------4-------4-------4-------|-3-------3-------3-------3-------|
(2:18-2:47)
CHORUS:(Cm,D#,A#)
VoiceE|--------------------------------------------------------------------|
H|-------------------------8------------------------------------------|
G|--5----------5----7-8-----------------------8--8----8-----7----5-3--|
D|--------------------------------------------------------------------|
A|--------------------------------------------------------------------|
E|bya.Yasvobo-denslovnopti-tzavnebe-|
|||
Gtr.E|--3-------3-----3-3-3-3---3-3-3---|-6---6---6---6-6-6-6-6---6---6-6-|
H|--4-------4-----4-4-4-4---4-4-4---|-8---8---8---8-8-6-6-6---6---6-6-|
G|--5-------5-----5-5-5-5---5-5-5---|-8---8---8---8-8-7-7-7---7---7-7-|
D|--5-------5-----5-5-5-5---5-5-5---|-8---8---8---8-8-8-8-8---8---8-8-|
A|--3-------3-----3-3-3-3---3-3-3---|-6---6---6---6-6-8-8-8---8---8-8-|
E|----------------------------------|-----------------6-6-6---6---6-6-|

sah.Yasvobo-den,yaza-byl,chtoznachit
Gtr.E|--3-------3-----3-3-3-3---3-3-3---|-6---6---6---6-6-6-6-6---6---6-6-|
H|--4-------4-----4-4-4-4---4-4-4---|-8---8---8---8-8-6-6-6---6---6-6-|
G|--5-------5-----5-5-5-5---5-5-5---|-8---8---8---8-8-7-7-7---7---7-7-|
D|--5-------5-----5-5-5-5---5-5-5---|-8---8---8---8-8-8-8-8---8---8-8-|
A|--3-------3-----3-3-3-3---3-3-3---|-6---6---6---6-6-8-8-8---8---8-8-|
E|----------------------------------|-----------------6-6-6---6---6-6-|
strah.Yasvobo-den,sdi-kimvet-romnarav-
Gtr.E|--3-------3-----3-3-3-3---3-3-3---|-6---6---6---6-6-6-6-6---6---6-6-|
H|--4-------4-----4-4-4-4---4-4-4---|-8---8---8---8-8-6-6-6---6---6-6-|
G|--5-------5-----5-5-5-5---5-5-5---|-8---8---8---8-8-7-7-7---7---7-7-|
D|--5-------5-----5-5-5-5---5-5-5---|-8---8---8---8-8-8-8-8---8---8-8-|
A|--3-------3-----3-3-3-3---3-3-3---|-6---6---6---6-6-8-8-8---8---8-8-|
E|----------------------------------|-----------------6-6-6---6---6-6-|
ne.Yasvobo-denna-yavu,anevo
Gtr.E|--3-------3-----3-3-3-3---3-3-3---|-6---6---6---6-6-6-6-6---6---6-6-|
H|--4-------4-----4-4-4-4---4-4-4---|-8---8---8---8-8-6-6-6---6---6-6-|
G|--5-------5-----5-5-5-5---5-5-5---|-8---8---8---8-8-7-7-7---7---7-7-|
D|--5-------5-----5-5-5-5---5-5-5---|-8---8---8---8-8-8-8-8---8---8-8-|
A|--3-------3-----3-3-3-3---3-3-3---|-6---6---6---6-6-8-8-8---8---8-8-|
E|----------------------------------|-----------------6-6-6---6---6-6-|
(2:47-3:00)
POST-CHORUS:
sne.
Gtr.E|--3-------3-----3-3-3-3---3-3-3---|-6---6---6---6-6-6-6-6---6---6-6-|
H|--4-------4-----4-4-4-4---4-4-4---|-8---8---8---8-8-6-6-6---6---6-6-|
G|--5-------5-----5-5-5-5---5-5-5---|-8---8---8---8-8-7-7-7---7---7-7-|
D|--5-------5-----5-5-5-5---5-5-5---|-8---8---8---8-8-8-8-8---8---8-8-|
A|--3-------3-----3-3-3-3---3-3-3---|-6---6---6---6-6-8-8-8---8---8-8-|
E|----------------------------------|-----------------6-6-6---6---6-6-|
|||
SynthE|----------------------------------|---------------------------------|
H|----------------------------------|-8---------------6---------------|
G|--5-----------------------8-7-5---|-----------------------------8-7-|
D|--------------------------------8-|---------------------------------|
A|----------------------------------|---------------------------------|
E|----------------------------------|---------------------------------|

Gtr.E|--3-------3-----3-3-3-3---3-3-3---|-6---6---6-6-6-6-6---------------|
H|--4-------4-----4-4-4-4---4-4-4---|-8---8---8-8-8-8-6---------------|
G|--5-------5-----5-5-5-5---5-5-5---|-8---8---8-8-8-8-7---R-----------|
D|--5-------5-----5-5-5-5---5-5-5---|-8---8---8-8-8-8-8---E-----------|
A|--3-------3-----3-3-3-3---3-3-3---|-6---6---6-6-6-6-8---S-----------|
E|----------------------------------|---------------------T-----------|
|||
SynthE|----------------------------------|---------------------------------|
H|----------------------------------|---------------------------------|
G|--5-----------------------8-7-5---|-5-------3---5-------------------|
D|--------------------------------8-|-----5-----------3---------------|
A|----------------------------------|---------------------------------|
E|----------------------------------|---------------------------------|
(3:00-3:34)VERSE3
(3:34-4:02)CHORUS
(4:16-4:51)Keyboardssolo
(4:51-5:52)
SOLO:
LeadE|--------------------------------------------------|-------------11b13-11^-11bfr11p10------------------|
H|--------------------------------------------------|-------------------------------11----------------|
G|-10b12-------10b12-------10b12r10p8--8--10--8~~~~~|(8)~~~~---------------------------12-------------|
D|--------------------------------------------------|-------------------------------------13--12------|
A|--------------------------------------------------|---------------------------------------------13--|
E|--------------------------------------------------|-------------------------------------------------|
LeadE|--------------------------------------------------|-------------------------------------------------|
H|--------------------------------------------------|---------------6-8----------------------------8--|
G|--------------------------------------------------|-----------5-8-----8-7---7h8p7h8p7h8-------------|
D|--------------------------------------------------|-------5-8-------------8-------------------------|
A|-10-----------------------------------------------|-------------------------------------------------|
E|--------------------------------------------------|-------------------------------------------------|
LeadE|-11----10----8-h10p8----------------------------11bend13---11^-11^-11^-r11-10-------------------------|
H|-------------------11b13r11b13-------11-13-11-----|-------------------------11~~~~~~~~~~~~----------|
G|--------------------------------------------------|--pickwhile--------------------------------10-|
D|--------------------------------------------------|--gradually------------------------------------|
A|--------------------------------------------------|--releasing------------------------------------|
E|--------------------------------------------------|-------------------------------------------------|
LeadE|--------------------------------------------------|-------------------------------------------------|
H|--------------------------------------------------|-------------------------------------------------|
G|-10\\8-8------...----------------------------------|-------------------------------------------------|
D|--------------------------------------------------|------------------------------------------/8--6--|
A|--------------------------------------------------|-------------------------------------------------|
E|--------------------------------------------------|-------------------------------------------------|
LeadE|--------------------------------------------------|-------------------------------------------------|
H|-----------------------------------------8--8--8--|-9-----8h9p8------------11b13-----------8--8--8--|
G|----------------5-----7--8~~~~~~~~~---------------|-------------10----8-----------------------------|
D|-5~~~~~-------------------------------------------|-------------------------------------------------|
A|--------------------------------------------------|-------------------------------------------------|
E|--------------------------------------------------|-------------------------------------------------|
LeadE|-------11p10p8------------------------------------|-------------------------------------------------|
H|-(8)----------11p9p8h9p11p9p8---------------------|-------------------------------------------------|
G|------------------------------10p8-...------------|-------------------------------------------------|
D|--------------------------------------------------|------------------------------------------/8--6--|
A|--------------------------------------------------|-------------------------------------------------|
E|--------------------------------------------------|-------------------------------------------------|
LeadE|--------------------------------------------------|-------------------------------------------------|
H|-----------------------------------------8--8--8--|-9-----8h9p8----------11b13-11^-11^-11^-11^-11^--|
G|----------------5-----7--8~~~~~~~~~---------------|-------------10----8-----------------------------|
D|-5~~~~~-------------------------------------------|-------------------------------------------------|
A|--------------------------------------------------|-------------------------------------------------|
E|--------------------------------------------------|-------------------------------------------------|
LeadE|--------------------------------------------------|-------------------------------------------------|
H|-11^r11-------11bfr11--11bfr11--11bfr11--11bfr11--|--8-11p8------------------------------------11---|
G|--------------------------------------------------|---------10-----------------------10p8-10p8---10-|
D|--------------------------------------------------|-------------------------------------------------|
A|--------------------------------------------------|-------------------------------------------------|
E|--------------------------------------------------|-------------------------------------------------|
LeadE|--------------------------------------------------|-------------17-20p19p17------------------------------|
H|----------------------8---------------------------|------------20------------------------------------|
G|-10--8~~~~~~~~~~---------8------------------------|-12h14h16p14p12-/19-------------...---------------------|
D|--------------------------------------------------|-------------------------------------------------|
A|--------------------------------------------------|-------------------------------------------------|
E|--------------------------------------------------|-------------------------------------------------|
CHORUSlasttimeinDmkey(Dm,F,C)

-----------------------------
|  , ,   |
|     http://akords.org     |
-----------------------------

 (: 0)
    :
  • (2 )
  • (2 )
  • (2 )
  • (3 )
  • Beyond Beautiful
  •  
    , . '.

    ':*
    E-Mail:*
    :
    , : *
     
      

    BLIBL-