|  
 
:  
  : :  
      ?    

  |

akords.org » » » (4 )

- (4 ) 

:()
e|-----------------|----------------|----------------|
B|-----------------|-8-8-9-8-6-/9-8-|-8-8-9-8-6-/9-8-|
G|---------5-7-7/8-|----------------|----------------|
D|-8~-6-55---------|----------------|----------------|
A|-----------------|----------------|----------------|
E|-----------------|----------------|----------------|

e|-----------------|-----------------|-------------8~-|
B|-8-6---6---------|-----------------|-8-8-9-8-6------|
G|-----8---8-7~----|---------5-7-7/8-|-----------8----|
D|-----------------|-8~-6-55---------|----------------|
A|-----------------|-----------------|----------------|
E|-----------------|-----------------|----------------|
e|-----------------|-----------------|----------------|
B|-8-8-9-8-6/9-8---|-8-6---6---------|-6--------------|
G|-----------------|-----8---8-7~----|---8-7-8-7-5----|
D|-----------------|-----------------|----------------|
A|-----------------|-----------------|----------------|
E|-----------------|-----------------|----------------|

e|------------------------|
B|------------------------|
G|-5-7-5-4---4-5---8-7-5~-|
D|---------5-----5--------|
A|------------------------|
E|------------------------|
:
Fm:
e|-3-4-----|
B|-3-----6-|
G|-3---5---|
D|-3-------|
A|-3-------|
E|-x-------|
Cm
H,
FmCm
H,.
FmCm
,
Bb
H.
Cm

FmCm
,
FmCm
Ƞ.
Bb

G#
.
GCm
.

Cm
ߠ,
FmCm
ߠ,
FmCm
ߠ,
Bb
H.
Cm
 
FmCm
ߠ,
FmCm
Ƞ,
Bb
,
G#
Ƞ.
GCm
 .
:
CmD#BbCm
ߠ!.
CmD#BbCm
ߠ!ߠ,.
CmD#BbCm
ߠ!Ѡ.
CmD#BbCm
ߠ!H,.

H,
H,.
,
Ƞ.

ߠ,
,

Ƞ,
.
 .
:()
DmFCDm
ߠ!.
DmFCDm
ߠ!ߠ,.
DmFCDm
ߠ!Ѡ.
DmFCDm
ߠ!H,.

-----------------------------
|  , ,   |
|     http://akords.org     |
-----------------------------

 (: 0)
    :
  • (2 )
  • ! (5 )
  • ! (4 )
  • !
  •  
    , . '.

    ':*
    E-Mail:*
    :
    , : *
     
      

    BLIBL-