|  
 
:  
  : :  
      ?    

  |

akords.org » » » (3 )

- (3 ) 

1|----------------------------4--4----5--4--2---5----4---|

2|-0-------------2--4---5--------------------------------|

3|----2---1--1-------------------------------------------|

----,---堠-.

------,

1|-4-----4---5-----4-----2---5--4-----4--2---0-----2----0--------|

2|----------------------------------------------------------4----|

3|---------------------------------------------------------------|

---,-蠠-.

Ƞ-󠠠--.--젠-



1|--2-----0--------------------------------------------------------------|

2|-----------4--5----4----2---2---4---2---1------1--2--4-------4---5---2-|

3|-------------------------------------------1--------------1------------|

ࠠ蠠-.-----蠠-.

Ƞ--. ----.

1|---------------------------------------------------------------|

2|-5----5---5---9-----5----5---5---4----2---0----2----------------|

3|---------------------------------------------------------------|

ߠ--,----.

ߠ--,-,-.

ߠ--,----.

ߠ--,--,ࠠ堠.

-----------------------------
|  , ,   |
|     http://akords.org     |
-----------------------------

 (: 0)
    :
  • ! (5 )
  • (2 )
  • ! (3 )
  • ! (4 )
  • (5 )
  •  
    , . '.

    ':*
    E-Mail:*
    :
    , : *
     
      

    BLIBL-