|  
 
:  
  : :  
      ?    

  |

akords.org » » » (2 )

- (2 ) 

:


(,..

.)

젠젠


--------|---------12|-------7-|----------------------------12|------

--------|-----12----|---------|-------------12---------------|------

--------|-12--------|----8----|---------12------12-----------|------

------9-|-----------|---------|-----12--------------12-------|------

--------|-----------|-9-------|------------------------12----|--16--

----0----|-----------|---------|-12---------------------------|------




02

Am

|-------------0-|--0--------|-2-------|-------|----------------------

|----------1----|-----0-----|----3----|-------|----------0-----------

|-------2-------|--------0--|-------2-|-------|-------0--------------

|----2----------|-----------|-0-------|---020-|----2-----------------

|-0-------------|-----------|---------|-------|-3--------------------

|---------------|--0--------|---------|-------|----------------------







젠

------|---------12-|-------7-|----------------------------12-|------

------|-----12-----|---------|--------------12---------------|------

------|-12---------|----8----|----------12------12-----------|------

----9-|------------|---------|------12--------------12-------|------

------|------------|-9-------|-------------------------12----|--16--

-0----|------------|---------|--12---------------------------|------





Am

|-------------0-|---0---------2----------------------------------

|----------1----|------0---------3-------------------0-----------

|-------2-------|---------0---------2-------------0--------------

|----2----------|-------------0--------020-----2-----------------

|-0-------------|---------------------------3--------------------

|---------------|---0--------------------------------------------




A3󠠠F8󠠠F3

-|-----------|---0----|---------------8|---3--------|--2------------

-|-4--------4|--------|------------8---|------------|-----3---------

-|----4------|--------|---------9------|-------3----|--------2------

-|-------4---|--------|-----10---------|----------4-|--0------------

-|-2---------|--------|----------------|------------|---------------

-|-----------|---0----|--8-------------|---3--------|---------------




----------------------------------------------|

---------------0------------------------------|

-------------0--------------------------------|

---020-----2----------------------------------|

--------3-------------------------------------|

---------------------0------------------------|

-----------------------------
|  , ,   |
|     http://akords.org     |
-----------------------------

 (: 0)
    :
  • (6 )
  •  
    , . '.

    ':*
    E-Mail:*
    :
    , : *
     
      

    BLIBL-