|  
 
:  
  : :  
      ?    

  |

akords.org » » »

-  

:(Vesper)
BG
E||----------------12----|------------7----|--------------------------|
B||------------12--------|-----------------|--------------12----------|
G||--------12------------|-------8---------|----------12------12------|
D||-----9----------------|-----------------|------12--------------12--|
A||----------------------|--9--------------|--10----------------------|
E||--0-------------------|-----------------|--------------------------|

AAmEmD
--------------12~---|--------------0----|--0--------------|--2--------------|
--------------------|-----------1-------|-------0---------|-------3---------|
--------------------|--------2----------|------------0----|------------2----|
--------11----------|-----2-------------|-----------------|--0--------------|
--12----------------|--0----------------|-----------------|-----------------|
--------------------|-------------------|--0--------------|-----------------|

BG
-------------------|----------------12----|------------7----|--------------------------|
-------------------|------------12--------|-----------------|--------------12----------|
--------------0r---|--------12------------|-------8---------|----------12------12------|
--------0h-2-------|-----9----------------|-----------------|------12--------------12--|
--0h-3-------------|----------------------|--9--------------|--10----------------------|
-------------------|--0-------------------|-----------------|--------------------------|

AAmEmB
--------------12~---|--------------0----|--0--------------|--2--------------|
--------------------|-----------1-------|-------0---------|-------4---------|
--------------------|--------2----------|------------0----|------------4----|
--------11----------|-----2-------------|-----------------|-----------------|
--12----------------|--0----------------|-----------------|--2--------------|
--------------------|-------------------|--0--------------|-----------------|

CGB
--0~-----------|---------------8----|-----------------|--2--------------|--0~-----------|
---------------|------------8-------|--3--------------|-------4---------|---------------|
---------------|---------9----------|-------4---------|------------4----|---------------|
---------------|-----10-------------|------------5----|-----------------|---------------|
---------------|--------------------|-----------------|--2--------------|---------------|
--0~-----------|--8-----------------|--3--------------|-----------------|--0~-----------|


--------------------------|------------------||
--------------------------|------------------||
--------------0r----------|------------------||
--------0h-2-----2--------|------------------||
--0h-3--------------3-----|------------------||
-----------------------0~-|------------------||

-----------------------------
|  , ,   |
|     http://akords.org     |
-----------------------------

 (: 0)
    :
  • (2 )
  •  
    , . '.

    ':*
    E-Mail:*
    :
    , : *
     
      

    BLIBL-