Зробити стартовою  |  Додати в вибране
 
Пошук по сайту:  
  логін: пароль:  
    Реєстрація на сайті   Нагадати пароль?    

Видавництво Симфонія | Книжкова фабрика

akords.org » К » Кипелов » Закат
Знайти необхідні акорди

Кипелов - Закат  Табулатура

Вступление к закату (2000 и 1 ночь)
Подобрал: Бармин Дмитрий
E-----4-2-0-----|-------|-----4-2-0-------|--------|
H---0-------4-2-|-2--0--|---0-------4-2-0-|-2-2--4-|
G-1-------------|-------|-1---------------|--------|
D---------------|-------|-----------------|--------|
A---------------|-0--2--|-----------------|-0----2-|
E-----0---------|-------|-----0-----------|--------|
   A          B
E--0-------|--2-------|-4-----2-0p2h0-------|---0--------0-|
H----2---2-|----4---4-|---0-----------4-2-0-|-2-------4----|
G------2---|------4---|-----1---------------|--------------|
D----------|----------|---------------------|--------------|
A--0-------|--2-------|---------------------|-0----2-------|
E----------|----------|-0-------------------|------------0-|

E-----4-2-0-----|-------|-----4-2-0-------|--------|
H---0-------4-2-|-2--0--|---0-------4-2-0-|-2-2--4-|
G-1-------------|-------|-1---------------|--------|
D---------------|-------|-----------------|--------|
A---------------|-0--2--|-----------------|-0----2-|
E-----0---------|-------|-----0-----------|--------|

   A          B
E--0-------|--2-------|-4-----2-0p2h0-------|---0--------0--0-|
H----2---2-|----4---4-|---0-----------4-2-0-|-2------0-4------|
G------2---|------4---|-----1---------------|-----------------|
D----------|----------|---------------------|-----------------|
A--0-------|--2-------|---------------------|-0----2----------|
E----------|----------|-0-------------------|---------------0-|

-----------------------------
|  акорди, навчання, відео  |
|     http://akords.org     |
-----------------------------

 (голосів: 0)
   Інші пісні:
  • Кода
  • Поклоны
  • Такая вот печаль...
  • Такая вот печаль (2 варіант)
  • Закат (2 варіант)
  •  
    Шановний відвідувач, Ви зайшли на сайт як незареєстрований користувач. Ми рекомендуємо Вам реєструватися або зайти на сайт під своїм ім'ям.

    Додавання коментаря

    Ім'я:*
    E-Mail:*
    Коментар:
    Введіть два слова, показані на зображенні: *
     
      

    BLIBL-створити сайт безкоштовно