Зробити стартовою  |  Додати в вибране
 
Пошук по сайту:  
  логін: пароль:  
    Реєстрація на сайті   Нагадати пароль?    

Видавництво Симфонія | Книжкова фабрика

akords.org » Г » Гости из будущего » Это Сильнее Меня
Знайти необхідні акорди

Гости из будущего - Это Сильнее Меня  Табулатура

Следующая табулатура играется на протяжении всей песни боем
  Am     C     X     Y
1--0-----0-----0-----0-----------------------------------
2--1-----1-----1-----1-------------------------------
3--2-----2-----3-----0-------------------------------
4--2-----0-----2-----2--------------------------------
5--0-----3-----0-----0---------------------------------
6--0-----0-----0-----0-------------------------------

-----------------------------
|  акорди, навчання, відео  |
|     http://akords.org     |
-----------------------------

 (голосів: 0)
   Інші пісні:
  • Внеплановый концерт
  • Нет дела до всех
  • Это все (2 варіант)
  • Закат (3 варіант)
  • Ты кидал (2 варіант)
  •  
    Шановний відвідувач, Ви зайшли на сайт як незареєстрований користувач. Ми рекомендуємо Вам реєструватися або зайти на сайт під своїм ім'ям.

    Додавання коментаря

    Ім'я:*
    E-Mail:*
    Коментар:
    Введіть два слова, показані на зображенні: *
     
      

    BLIBL-створити сайт безкоштовно