|  
 
:  
  : :  
      ?    

  |

akords.org » » »

-  

Intro:



2|--0-7-8-0-7-8-7-5-0-7-8-0-7-8-7--|---7-8—7-8-7—5|--8-10—8-10—8-7-

3|---------------------------------9|-5-----5------|7------7--------



Verse1:



DmDm7

,

Gm

ߠ,

ADm

--

,

ߠ,





Dm7F7

!

Dm6

,

A7

,

DmDm7



Gm



A7

–…



Chorus:



DmDm7

,,,

B(VI)



GmA



,,,2|-0h1-7\\8



–,!



2|--0-7-8-0-7-8-7-5-0-7-8-0-7-8-7--|---7-8—7-8-7—5|--8-10—8-10—8-7-

3|---------------------------------9|-5-----5------|7------7--------



Verse2:



DmDm7

,…

Dm6

--…

GmA

!

,

,





Outroverse:



DmDm7

ࠫtuemovi

Dm6

,

A







,,

Ƞ…



horus:(,)



Solo:



2|--0-7h8-8-8-8-|x4

2|--0-9h10-10-10-10|x4

2|--0-7h8-8-8-8-|x4

2|--0-9h10-10-10-10|x4



Outroverse(…)



…3|-14



horus.



horus.



,.







:



2|-1

2|-10

2|-12







2|-0h1-9h10-11h12



ߠ…



2|-1----10



.,,.(
).



(,):



2|---7-77-6-4-6h7-6-4



2|--3-3-3-7-7-7—7-7-6-6-6-6-6-7-6-4

ߠ,--.

2|-7-7-77-6-4-6h7-6-4

,

2|888-10-10-10-10

ߠ

2|10-10-9-9-10-12-14

,

2|-12-12-12-12-10-10-8

!

2|-8-8-8-7-8—8-8-8-8



2|-8-8-7-10-8—8-7

,

2|-8-8-7-7-10-8



2|5-5-12—11-9-11-9-11-11-10-10-10-13-11

|–..



2|9-7-7-9-7-7-12-12-12-11

,,

2|-7-7-7-7-6-7-7

,

2|7-7-7-6-6-6-6-6—9-7



2|9-7-7-9-7-7-12-12-12-11

,,

2|-7-7-7-7-6-7-7

,

2|7-7-7-6-6-6-6-9-7-9-7

–,



2|7777-6-4-7-4



2|7-6-7-6

--

2|7-6-6-6-9-7



2|777-6-4-7-4



2|9-7-5-9-7

,

2|5-5-4-4-4-7-5





Outroverse:



2|5-5-4-7-5-9-9-4-5

ࠫݠ

2|5-5-4-7-5



2|5-5-4-7-5

-,

2|5-5-5-5-4-7-5



2|-9-45



2|-5-7-5-5-7-5



2|-7-7-9-10



,!

,.

,.

.,,..

-----------------------------
|  , ,   |
|     http://akords.org     |
-----------------------------

 (: 0)
    :
  • Shut Up
  • Party Song
  • Dog Eat Dog
  • All The Small Things
  •  
    , . '.

    ':*
    E-Mail:*
    :
    , : *
     
      

    BLIBL-