|  
 
:  
  : :  
      ?    

  |

akords.org » » » p p

- p p 

GD

|-3---5---/7---5--3--------3-----3--------7--5--2/3/3-0-----------|

|--------------------0---0---0-----0---0----------------3-3-----3-|

|----------------------0-------0-----0------------------------2---|

|-------------------------------------------------------0-0-------|

|-----------------------------------------------------------------|

|--------------------3--------------------------------------------|

(pp,ppp-.....-

AmCD

|--------0-----0---------0---------------3-----2-0---------------0-|

|--1---1---1-----1-----1---1-----------1---1-------3-------0-1-0---|

|----2-------2-------2-------2-------0-------0-----------2---------|

|--------------------------------------------------0---------------|

|--0---------------0-----------0-1-2-------------------------------|

|------------------------------------------------------------------|

-,젠p,..-

GD

|---------3---------2-----|----------------------------------------------------

|-0-0---0---0---0---3-----|----------------------------------------------------

|-----0-------0---0-2-----|----------------------------------------------------

|-------------------0-----|----------------------------------------------------

|-------------------------|---------------------------------------------------

|-3-3---------------------|----------------------------------------------------

-)GDAm

,-

CDGD

-,

-



Ӡ,

Ӡ\"\",\"\"

Ӡ,

:,



(.p)

,--



,

,,

,

H,,--,

-

Ƞ

.

-----------------------------
|  , ,   |
|     http://akords.org     |
-----------------------------

 (: 0)
    :
  • (2 )
  •  
    , . '.

    ':*
    E-Mail:*
    :
    , : *
     
      

    BLIBL-