|  
 
:  
  : :  
      ?    

  |

akords.org » » »

-  

^H-hammer-on



Fill1



AmHHDm

---0---------------|---0-------------0-|---1-0-----------|-1-0---------|-----|

---1-0-------0^1---|-----3-1-0-1-1^3---|---3---3-1-0-1-3-|-----3-1-3-0-|-----|

---2---2-1-2-----2-|-------------------|-2-2-------------|-----------1-|-1---|

-2-2---------------|-2-----------------|---0-------------|-------------|---2-|

---0---------------|---0-------0-------|-----------------|-------------|-----|

-------------------|-------------------|-----------------|---0-------0-|-----|



AmHHDm

---0---------------|---0-------------0-|---1-0-----------|-1-0---------|-----|

---1-0-------0^1---|-----3-1-0-1-1^3---|---3---3-1-0-1-3-|-----3-1-3-0-|-----|

---2---2-1-2-----2-|-------------------|-2-2-------------|-----------1-|-1---|

-2-2---------------|-2-----------------|---0-------------|-------------|---2-|

---0---------------|---0-------0-------|-----------------|-------------|-----|

-------------------|-------------------|-----------------|---0-------0-|-----|



EndofFill1



Fill2

-3-3-----3-3-1-0-1-5-|-1-1-----1-1-0---0-3-|-------5-10-8-7-5-5-4-|

-------2-------------|-------0-------4-----|-3-5-6----------------|

-----2---------------|-----0---------------|----------------------|

-----------0---------|---------------------|-0--------------------|

---0-----------------|---2-------3---------|----------------------|

---------------------|---------------------|------------------0---|



-------5-10-8-7-5-5-4-|-5-|

-3-5-6----------------|---|

----------------------|---|

-0--------------------|---|

----------------------|-0-|

------------------0---|---|



EndofFill2



Fill1



withFill1

-

Ѡ---.

,,

.



withFill2

,

-,,

Ѡ-,

--.



Fill1



withFill1

--.

,,.

,.,.

--.



withFill2



Ƞ,,

Ѡ-,

--.



1-sttaktofFill1

-----------------------------
|  , ,   |
|     http://akords.org     |
-----------------------------

 (: 0)
    :
  • p
  • (2 )
  • p (2 )
  • Dt
  •  
    , . '.

    ':*
    E-Mail:*
    :
    , : *
     
      

    BLIBL-