|  
 
:  
  : :  
      ?    

  |

akords.org » » »

-  

Ҡ3͠



---3-3-3---2---0-0--0-0-0-0-0-0-0--

---0-0-0---0---0-0--0-0-0-0-0-0-0--

---4-4-4---4---4-4--4-4-4-4-4-4-4--2

---5-5-5---5---5-5--5-5-5-5-5-5-5--??

-----------------------------------

-----------------------------------



--7--7--7---5---3--3-3-3-3-3-3--

--8--8--8---7---3--3-3-3-3-3-3--

--7--7--7---7---0--0-0-0-0-0-0--

--9--9--9---7---0--0-0-0-0-0-0--

--10-10-10--5---2--2-2-2-2-2-2--

--10-10-10--5---2--2-2-2-2-2-2--



EmDG

 .

EmDG

Š-Ϡ??.

AmD

Ѡ??,

AmDDsus5D

??ʠĠԠ.

EmDG

 .

EmDG

ӠנȠؠ,

AmD

 ̠,

AmD

ϠʠŠϠŠ.



CAmGEm

 , Ѡ̠͠Š-

AmCEm

ŠϠŠ :

CAmDDsus5D

, Ѡ̠͠Š-

AmD

ѠϠ.

AmDDsus5D

Š??Ϡ.





EmCAmCEm

-3--3-2-0|-------|----------|--------0-

---------|-0-3---|----------|--------0--

---------|-------|2--2-4-2-0|---2----0---

---------|-------|----------|--2??---2----

---------|-------|----------|-----2-----

---------|-------|----------|----0------



EmDG

 .

EmDG

Ԡ,Ԡ.

AmD

 ͠͠,

AmD

,ϠŠ??,ŠϠӠ:

CAmGEm

ؠ,??ʠ??ϠŠŠԠ-

AmCEm

ϠʠŠ,ʠŠ??:

CAmDDsus5D

 , Ѡ̠͠Š-

AmD

ؠ,ŠŠ.



EmDG

 .

AmD

ϠŠ ??,

AmD

??,ϠӠŠѠ-

FC

Ϡؠ͠Šՠ.

FH

,Ϡ͠Ԡ??

Em

 .





EmCAmC

-3--3-2-0|-------|----------|---

---------|-0-3---|----------|---

---------|-------|2--2-4-2-0|---2

---------|-------|----------|--2??

---------|-------|----------|---

---------|-------|----------|---





---3-3-3---2---0-0--0-0-0-0-0-0-0--

---0-0-0---0---0-0--0-0-0-0-0-0-0--

---4-4-4---4---4-4--4-4-4-4-4-4-4--2

---5-5-5---5---5-5--5-5-5-5-5-5-5--??

-----------------------------------

-----------------------------------



--7--7--7---5---3---------0--

--8--8--8---7---3--------0---

--7--7--7---7---0-------0----

--9--9--9---7---0------2-----

--10-10-10--5---2-----2-----

--7--7--7---5---3----0-------



EmDDsus5GAmCFH



02330012

03331114

02202024

20002234

20020332

0--30012

-----------------------------
|  , ,   |
|     http://akords.org     |
-----------------------------

 (: 0)
    :
  • (2 )
  • ,
  •  
    , . '.

    ':*
    E-Mail:*
    :
    , : *
     
      

    BLIBL-