|  
 
:  
  : :  
      ?    

  |

akords.org » » »

-  

():DmAm



-------0---0-1-----0-----------------0----------

-3---3---3-------3-----3-1---1-3---3-----1-3---1

---2-----------2-----2-----2-----2-----2-----2--(2)

-0-----------0----------------------------------

-------------------------0-----------0----------

------------------------------------------------



DmCDmCDm

,,

CDmC



DmCDmCDm

,,

CDmC

.

DmAm

-

CA#C

.

DmCDmCDmCDmC

,,,.



,,,;

,,,.

Ѡ;.

,.



,,.

,,-.

,,,

,,,.



,,-.

,.

,;

,,,...

-----------------------------
|  , ,   |
|     http://akords.org     |
-----------------------------

 (: 0)
    :
  • (2 )
  •  
    , . '.

    ':*
    E-Mail:*
    :
    , : *
     
      

    BLIBL-