|  
 
:  
  : :  
      ?    

  |

akords.org » » »

-  

:{Dm7(V)E(4)Am}-3p

DmAm





Dm7EAmDm7EAmDm7EAm

e|--5-----5------0----|--5-----5-------0-0--|--5-----5------0----

|--6-----4----1---1--|--6-----4----0/1-1-1-|--6-----4----1---1--

|-5-5---4-4--2-2-2-2-|-5-5---4-4--2--------|-5-5---4-4--2-2-2-2-

|7-------------------|7--------------------|7-------------------

|------7----0--------|------7----0---------|------7----0--------

E|--------------------|---------------------|--------------------



DmAm

e|--310------010------00--00

|-----310-13---310---11--11

|-2-----------------2---2--

|0---------------------2---

|------------------0-------

E|--------------------------.......







FAmEmAm

,,

FAmEmAm

.

FCDmF(F/E)

,;

DmAm

-...





-;

-,;

;

,,-,...





FCDmAm

,,?

FCDmAm

-,?

FCDmF

,,;

DmAm

ߠ,,...





,?

?-.

,;

,.



-,

-,-.

,

,-.



|,-;

-.

,,

-ߠ...



,;

,.

,!

-,-...



IVE(IV)

-|-*-|---|---|---|-

-|---|-*-|---|---|-

-|-*-|---|---|---|-

-|---|---|-*-|---|-

-|---|---|---|-*-|-

-|-*-|---|---|---|-

E(4)

-----------------------------
|  , ,   |
|     http://akords.org     |
-----------------------------

 (: 0)
    :
  • (2 )
  •  
    , . '.

    ':*
    E-Mail:*
    :
    , : *
     
      

    BLIBL-