Зробити стартовою  |  Додати в вибране
 
Пошук по сайту:  
  логін: пароль:  
    Реєстрація на сайті   Нагадати пароль?    

Видавництво Симфонія | Книжкова фабрика

akords.org » Г » Борис Гребенщиков » Гоpод золотой
Знайти необхідні акорди

Борис Гребенщиков - Гоpод золотой  Табулатура

1---3--2--0-----0-----------7--5---3--2--3--------0---8--7--5--3--2--3--5----8--7--5--3--5--2----------------
2-0----------4----------0-------------------0---------------------------------------------------------------
3--------------------0------0-----------------0--------------------------------------------------------------
4--------------------2---------4---2--1--2------------7--5--3--2--1--2--3----7--5--3--2--3-----------------
5---------2--2-----2------------------------------------------------------------------------2---------------
6---0-----------0--------------------------------------------------------------------------------------------

Припев:
1-7--7---------------------------5--5------------------------------------0---5--3--2--0--0-------------------
2-------3--3--3--3--1--0--3--1---------1--1--1---1--0---0--0-----------1--------------------4---------------
3-------4--4--4------------------------2--2--2--------2-------------2---------------------------
4----------------------------------------------------------------3------------------------------------
5----------------0------------------0----------------------------------------------------2--2-------------
6----0-------------------------------------------3-------------------------------------------------------

1--------0---5--3--2--0-0-----0------------------------------
2------1-------------------4----------------------------
3----2------------------------------------------------
4--3---------------------------------------------------
5-----------------------2--2------------------------------
6-----------------------------0----------------------------

-----------------------------
|  акорди, навчання, відео  |
|     http://akords.org     |
-----------------------------

 (голосів: 0)
   Інші пісні:
  • Гоpод золотой (2 варіант)
  • Гоpод
  • Город
  • Веретено
  • Радиоволна
  •  
    Шановний відвідувач, Ви зайшли на сайт як незареєстрований користувач. Ми рекомендуємо Вам реєструватися або зайти на сайт під своїм ім'ям.

    Додавання коментаря

    Ім'я:*
    E-Mail:*
    Коментар:
    Введіть два слова, показані на зображенні: *
     
      

    BLIBL-створити сайт безкоштовно