|  
 
:  
  : :  
      ?    

  |

akords.org » » » p

- p 

(1-)



Fill1

------------------|---0------------0-|---1-0-----------|-1-0---------|

---1-0-------01---|-----3-1-0-1-13---|-------3-1-0-1-3-|-----3-1-3-0-|

-------2-1-2----2-|------------------|-2---------------|-------------|

-2----------------|-2----------------|---0-------------|-------------|

---0-------0------|---0-------0------|-----------------|-------------|

------------------|------------------|-----------------|---0-------0-|



------------------|---0------------0-|---1-0-----------|-1-0---------|

---1-0-------01---|-----3-1-0-1-13---|-------3-1-0-1-3-|-----3-0-1---|

-------2-1-2----2-|------------------|-2---------------|-----------2-|

-2----------------|-2----------------|---0-------------|-------------|

---0-------0------|---0-------0------|-----------------|-----------0-|

------------------|------------------|-----------------|---0---------|

EndofFill1



Fill2

-5-5-----3-3-1-0-1-5-|-3-----1-1-0---0-3-|---0---5-10-8-7-5-5-4-|

-------2-------------|-----0-------4-----|-3---6----------------|

-----2---------------|---0---------------|----------------------|

-----------0-------0-|-------------------|-0--------------------|

---4-----------------|---------3---------|----------------------|

---------------------|-3-----------------|------------------0---|



---0---5-10-8-7-5-5-4-|-5-

-3---6----------------|---

----------------------|---

-0--------------------|---

----------------------|-0-

------------------0---|---

EndofFill2



Fill1



withFill1

-

Ѡ---.

,,

.



withFill2

,

-,,

Ѡ-,

--.



Fill1



withFill1

--.

,,.

,.,.

--.



withFill2



Ƞ,,

Ѡ-,

--.



1-sttaktofFill1



(2-)





堠p䠠-頠Ѡp-

E---------------------------0----------------0------1-0----------------

H----1--0--------0-1-----------3-1-0--1--1-3------------3-1-0-1-3------

G---------2-1-2------2---------------------------2---------------------

D--2----------------------2-------------------------0------------------

A----0--------0------0------0---------0------0--------------0----------

E----------------------------------------------------------------------

Am...Dm...





ݠp......--

E---1-0----------------------------------------------

H-------3-1-3--0--------------\'\'-0---1-0-1-------------

G----------------1------------()-----------2-----------

D-----0------------2----2-------2-------------------

A-----------------------------:-----0-----0-----------

E--------------0--------------0---------------------

E...



p-.p:



...py-렠蠠-

E-0-0-----0--0---------1-----------------------0-----------------------

H-------2-------3-2-3-----3--3-------3-3-1-0-1---------------3-1-0-----

G-----2---------------------------0----------------------0-2-------2---

D------------0---------0--------0------------------0-2-3---------------

A---0----------------------------------3-------3-----------------0-----

E----------------------------0---------------------0-0-------0---------



(Ѡy

àp;-))))

Mp.

頠..

E----------------------------------------------------------------------

H---------------3-1-0--------------------------------------------------

G--2-1--------2-------2-2-1--2-----------------------------------------

D-------0-2-3----------------------------------------------------------

A----0----------0------------0-----------------------------------------

E--0----0---------------0----------------------------------------------



:)





-0-8-7-5-4-5-7h8-5-0-12-10-8-7-8-8h10-12-5-13-12-10-8-7-8-10-12h13p12-10-8-10-7



-0-8-7-5-4-5-7h8-5-0-12-10-8-7-8-8h10-12-5-13-12-10-8-7-8-10-12h13p12-10-8-7-5-



:



-15-15-5-12-15-15-13-12-13-17-15-13-3-10-13-13-12-10-12-15-

-10-12-13-17-22-20-19-17-17-16-

-10-12-13-17-22-20-19-17-17-16-17-

-----------------------------
|  , ,   |
|     http://akords.org     |
-----------------------------

 (: 0)
    :
  • (2 )
  • p (2 )
  • Dt
  •  
    , . '.

    ':*
    E-Mail:*
    :
    , : *
     
      

    BLIBL-