|  
 
:  
  : :  
      ?    

  |

akords.org » » » Nuit De Noel

- Nuit De Noel 

():



Hm(II)Hm(II)EmF#(II)Hm(II)()

1-|-------------2-------0--2--0--|----------2-|--2-------|-

2-|----3-------3-------0---------|----2-------|--3-------|-

3-|---4-------4-------0----------|---3--------|--4-------|-

4-|--4-------4-------2-----------|--4---------|--4-------|-

5-|-2----------------------------|-4----------|--2-------|-

6-|------------------------------|------------|----------|-



F#Hm

ߠ,

Hm

Ƞ,

H7Em

,,

ADF#

ߠ...

HmHm

Ƞ

H7Em

,,

eHm

,

EmF#Hm

NuitdeNoel.



F#Hm

,

AD

Ƞ

A

,

eD

.

Hm

Ƞ,

H7Em

Ƞ.

EmGHm

H,

EmF#Hm

!





EmF#Hm

,,

AD

ߠ,,

Ae

-

D

.

Hm

,

HmEm

ߠ.

eHm

Ƞ

EmF#Hm

.





F#Hm

Ƞ,

AD

Ƞ,

Ae

H,

D

Ƞ.

Hm

,

EmEm

,,

eHm

,

EmF#Hm

NuitdeNoel.





:



ࠠHm(II)EmF#(II)H7ADG



12021023

23020230

34032220

44241200

522420x2

6202xxx3

-----------------------------
|  , ,   |
|     http://akords.org     |
-----------------------------

 (: 0)
    :
  • Nuit De Noel
  • --
  •  
    , . '.

    ':*
    E-Mail:*
    :
    , : *
     
      

    BLIBL-