Зробити стартовою  |  Додати в вибране
 
Пошук по сайту:  
  логін: пароль:  
    Реєстрація на сайті   Нагадати пароль?    

Видавництво Симфонія | Книжкова фабрика

akords.org » Д » Друга ріка » Три хвилини
Знайти необхідні акорди

Друга ріка - Три хвилини 2 табулатура

Каподастр на 1 ладі
--------------------------------------------------------------
Вступ ділиться на дві частини. Першу грається повністю а другу без 1 і 3.
1 2 3
e-----|---------------------------------------------------|------------
h-----|---------------------------------1-----1-----1---1-|------------
g---0-|-2-----2-----2---2-----0-----0-----0-----0---------|-0---3---2--
D-3---|---3-0---3-0---0---3-0---3-0---0-----2-----2---2---|---2---2----
A-----|-----------------1---------------3---------------0-|------------
E-----|---------------------------------------------------|------------

Куплет:

e-----|----------------------------------------------------------------
h-----|---------------------------------1-----1-----1---1-----1-----1--
g---0-|-2-----2-----2---2-----2-----2-----0-----0---------0-----0------
D-3---|---3-0---3-0---0---3-0---3-0---0-----2-----2---2-----2-----2---2
A-----|-----------------1---------------3---------------0--------------
E-----|----------------------------------------------------------------

Приспів:

e----------------------------------------------------------------------
h-------3---------------3---------------3---------------5--------------
g-----2---2---2-------2---2---2-------5---5---5-------5---5---5--------
D---3-------3---3---3-------3---3---5-------5---5---7-------7---7------
A-0---------------1---------------3---------------0--------------------
E----------------------------------------------------------------------

-----------------------------
|  акорди, навчання, відео  |
|     http://akords.org     |
-----------------------------

 (голосів: 9)
   Інші пісні:
  • Той прикрий світ
  • Якщо любиш, кохай
  • Три хвилини
  • Три хвилини
  • Так просто
  •  
    Шановний відвідувач, Ви зайшли на сайт як незареєстрований користувач. Ми рекомендуємо Вам реєструватися або зайти на сайт під своїм ім'ям.

    Додавання коментаря

    Ім'я:*
    E-Mail:*
    Коментар:
    Введіть два слова, показані на зображенні: *
     
      

    BLIBL-створити сайт безкоштовно