Зробити стартовою  |  Додати в вибране
 
Пошук по сайту:  
  логін: пароль:  
    Реєстрація на сайті   Нагадати пароль?    

Видавництво Симфонія | Книжкова фабрика

akords.org » Д » ДиДюЛя » Фламенко (2 варіант)
Знайти необхідні акорди

ДиДюЛя - Фламенко (2 варіант)  Табулатура

-----------------------------------------------------------------------------
Обозначения:

Har.    - флажолет
~~10~   - послушайте ДиДюЛю и все поймете
-----------------------------------------------------------------------------

          Har.
E||-4-5-7-----~~10~---10-8-7-8-7h8p75-7-5-4---------------------0--0---
B||-0-------------------------------------------6-5-3---5--------0----0-
G||-4-------------------------------------------------5---4------2------
D||-2-------------------------------------------------------5----3------
A-------------------------------------5~-3------
E||-------12--------------------------------0---------------------------

   -0--0----0-0--0----12--4h5p4-0-------------------------0-1-4-1--0---
   -0----0--0--0-0-----------------5-----------------0-1-4--------------
   -1-------2----1-------------------4-2-1h2p1p0-1-2--------------------
   -2-------3----2------------------------------------------------------
   -2-------3----2------------------------------------------------------
   ---------------------------------------------------------------------

   (это только последовательность аккордов того, что играется - 
   - ритм возьмите у ДиДюЛи :)
   -0---1-0----0---1-0----5--3--1--0---5--3--1--0--1--0--1--5-----------
   -0---1-0----0---1-0----5--3--1--0---5--3--1--0--1--0--1--5-----------
   -1---2-1----1---2-1----5--4--2--1---5--4--2--1--2--1--2--5-----------
   -2---3-2----2---3-2----7--5--3--2---7--5--3--2--3--2--3--7-----------
   -2---3-2----2---3-2----7--5--3--2---7--5--3--2--3--2--3--7-----------
   ---------------------------------------------------------------------

   (синтезатор на фоне)
   -----------------------------
   -----------------------------
   -----------------------------
   -----------------------------
   ---------7-7~----------7-7~--
   -0---5h7-------0---5h7-------


  ||-12--4h5p4-0-------------------------------0h1-4-1h4-0-----0---0--||
  |---5-----------------0-1-1h4-1-0-------------5-4---4----||
  ||*---------------4-2-1h2p1p0-1-2-----------------------------------*||
  ||*-----------------------------------------------------------------*||
  ---------------------------------------------||
  ---------------------------------------------||

-----------------------------
|  акорди, навчання, відео  |
|     http://akords.org     |
-----------------------------

 (голосів: 0)
   Інші пісні:
  • Фламенко
  • War Pigs
  • Смутное время (2 варіант)
  • Falling Off The Edge Of The World
  • War Pigs
  •  
    Шановний відвідувач, Ви зайшли на сайт як незареєстрований користувач. Ми рекомендуємо Вам реєструватися або зайти на сайт під своїм ім'ям.

    Додавання коментаря

    Ім'я:*
    E-Mail:*
    Коментар:
    Введіть два слова, показані на зображенні: *
     
      

    BLIBL-створити сайт безкоштовно