|  
 
:  
  : :  
      ?    

  |

akords.org » » »

-  

TranscribedbyVolkovAlexey
mailto:statx@mail.ru,http://xal.newmail.ru/

-----------------------------------------------------------------------------
:

Har.-
~~10~-
-----------------------------------------------------------------------------

Har.
E||-4-5-7-----~~10~---10-8-7-8-7h8p7\\5-7-5-4---------------------0--0---
B||-0-------------------------------------------6-5-3---5--------0----0-
G||-4-------------------------------------------------5---4------2------
D||-2-------------------------------------------------------5----3------
A||-----------------------------------------------------------5~-3------
E||-------12--------------------------------0---------------------------

-0--0----0-0--0----12\\--4h5p4-0-------------------------0-1-4-1--0---
-0----0--0--0-0-----------------5-----------------0-1-4--------------
-1-------2----1-------------------4-2-1h2p1p0-1-2--------------------
-2-------3----2------------------------------------------------------
-2-------3----2------------------------------------------------------
---------------------------------------------------------------------

(,-
-:)
-0---1-0----0---1-0----5--3--1--0---5--3--1--0--1--0--1--5-----------
-0---1-0----0---1-0----5--3--1--0---5--3--1--0--1--0--1--5-----------
-1---2-1----1---2-1----5--4--2--1---5--4--2--1--2--1--2--5-----------
-2---3-2----2---3-2----7--5--3--2---7--5--3--2--3--2--3--7-----------
-2---3-2----2---3-2----7--5--3--2---7--5--3--2--3--2--3--7-----------
---------------------------------------------------------------------

()
-----------------------------
-----------------------------
-----------------------------
-----------------------------
---------7-7~----------7-7~--
-0---5h7-------0---5h7-------


||-12\\--4h5p4-0-------------------------------0h1-4-1h4-0-----0---0--||
||--------------5-----------------0-1-1h4-1-0-------------5-4---4----||
||*---------------4-2-1h2p1p0-1-2-----------------------------------*||
||*-----------------------------------------------------------------*||
||-------------------------------------------------------------------||
||-------------------------------------------------------------------||

-----------------------------
|  , ,   |
|     http://akords.org     |
-----------------------------

 (: 1)
    :
  • (2 )
  • Beyond The Sunset
  • War Pigs
  • Falling Off The Edge Of The World
  • Nib
  •  
    , . '.

    ':*
    E-Mail:*
    :
    , : *
     
      

    BLIBL-