|  
 
:  
  : :  
      ?    

  |

akords.org » » »

-  

1-----/-------------------------------------------------------------------------------------------/-------------------------
2-----/-------------------------------------------------------------------------------------------/-------------------------
3-----/-------7------7--6--4--6---4h6p4--6--7--4---4h6p4--6--7--4---9---7h9p7--6--6-/---4---4---4-----4----
4-----/----4------4------------------------------------------------------------------------------/--5---5---5---5--------
5-----/-------------------------------------------------------------------------------------------/-------------------------
6-----/-------------------------------------------------------------------------------------------/-------------------------
1--------------------------------------------------------------------------------------------------------------------------
2--------------------------------------------------------------------------------------------------------------------------
3----------------------------------9-----9-----9--11---9h11p9------7---7---7---9---7h9p7-------------------------
4------4---4---4-----4-------11----11---11-----------------------9---9---9----------------------11---12---11-----
5----5---5---5---5-------------------------------------------------------------------------------------------------------
6--------------------------------------------------------------------------------------------------------------------------

1--------------------------------------------------------------------------------------------------------------------------
2----------15------15-14---12---14---12h14p12---14---15--12--12h14p12--14-15-17-15h17p15--14-14---
3-----11-------11--------------------------------------------------------------------------------------------------------
4--------------------------------------------------------------------------------------------------------------------------
5--------------------------------------------------------------------------------------------------------------------------
6--------------------------------------------------------------------------------------------------------------------------
1---------------------------------------------------------------------------------------------------------------------------
2--------12-----12-----12-------12--------------------------------------------------------------------------------------
3----12-----12-----12-----12-------------11-----11-----11-----11-------9-----9-----9--11.9h11p9-------------
4----------------------------------------12-----12-----12-----12-------11----11---11---------------------------------
5---------------------------------------------------------------------------------------------------------------------------
6---------------------------------------------------------------------------------------------------------------------------
********
1--------------------------------------/-------------/----------------------------------------------------------------------
2--------------------------------------/-------------/----------------------------------------------------------------------
3------7---7----7--9---7h9p7-------/-------------/----------------------------------------------------------------------
4----9---9---9-------------------11--/-------------/----------------------------------------------------------------------
5--------------------------------------/-------------/----5--7--9---5--5--7--9---12--7--9----4--5--7.5.4.2---
6--------------------------------------/-------------/----------------------------------------------------------------------
4---------------------------------------------------------------------------------------------------------------------------
5.4---5---7---5--4--2----5--7---9----12--7--9---17--14--9--7--9--17--16--13--9--7--9--4.5--7--5.4-2-
6---------------------------------------------------------------------------------------------------------------------------
1---------------------------------------------------------------------------------------------------------------------------
2----------------------------------15------15-14---12---14---12h14p12---14---15--12--12h14p12--14.15-12
3---------------------------------------11---------------------------------------------------------------------------------
4---------------------------------------------------------------------------------------------------------------------------
5---4--5--7--5--4--2--5----4--------------------------------------------------------------------------------------------
6---------------------------------------------------------------------------------------------------------------------------
1---------------------------------------------------------------------------------------------------------------------------
2---------12h14p12--14---15---17---15h17p15--14---14-------12-----12-----12-------12-----------------------
3-------------------------------------------------------------------12-----12-----12-----12-----------------------------
4---------------------------------------------------------------------------------------------------------------------------
5---------------------------------------------------------------------------------------------------------------------------
1---------------------------------------------------------------------------------------------------------------------------
2---------------------------------------------------------------------------------------------------------------------------
3-------------11-----11-----11-----11-------9-----9-----9--11.9h11p9----------7---7----7--9---7h9p7---------
4--------12-----12-----12-----12-------11----11---11----------------------------9---9---9-------------------11----
4---------------------------------------------------------------------------------------------------------------------------
5---------------------------------------------------------------------------------------------------------------------------
6---------------------------------------------------------------------------------------------------------------------------
*********
1---/---------------/-------------------------------------------------------------------------------------------------------
2---/---------------/-----------12-----12----12----12-------------------------------------------------------------------
3---/---------------/-------12-----12----12----12-----------11-----11-----11-----11-------9-----9-----9--11-------
4---/---------------/---------------------------------------12-----12-----12-----12-------11----11---11--------------
5---/---------------/-------------------------------------------------------------------------------------------------------
6---/---------------/-------------------------------------------------------------------------------------------------------

*********
1------------------------------------------------------------/--------------/-----------------------------------------------
2------------------------------------------------------------/--------------/-----------------------------------------------
3-------9h11p9----------7---7----7--9---7h9p7--------/--------------/-----------------------------------------------
4-----------------------9---9---9-------------------11----/--------------/-----------------------------------------------
5-----------------------------------------------------------/--------------/------------------------------------------------
6-----------------------------------------------------------/--------------/------------------------------------------------
/**********/--.
,

1---------------------------------------------------------------------------------------------------------------------------
2--------5--3--------------------------------------------------------------------------------------------------------------
3-----------------6--4--3-------------------------------------------------------------------------------------------------
4----------------------------5--4------------------------------------------------------------------------------------------
2--Hm/F#/G/
A(5)/F#
-G/Hm/
A(5)/G/F#

-----------------------------
|  , ,   |
|     http://akords.org     |
-----------------------------

 (: 0)
    :
  • Nightfall
  • 74 Jailbreak
  • Jailbreak
  • Soul Stripper
  • War Pigs
  •  
    , . '.

    ':*
    E-Mail:*
    :
    , : *
     
      

    BLIBL-