|  
 
:  
  : :  
      ?    

  |

akords.org » » » (2 )

- (2 ) 

e.---------------|-----------|-----------------(5)-7-8-7-5-7-
b.---0-1-0---1g5-|-333-1-0---|----0-1-0---1g5--(5)-----------
g.-2-------2-----|-----------|--2-------2------(5)-----------
d.---------------|---------3-|-------------------------------
e.-777-5------|
b.-------8-6--|
g.------------|
d.------------|
Ƞ.....Ƞ!:

Am

Dm

CG
,
Dm

Ƞ....

-----------------------------
|  , ,   |
|     http://akords.org     |
-----------------------------

 (: 0)
    :
  • (2 )
  • ...
  • ... (2 )
  •  
    , . '.

    ':*
    E-Mail:*
    :
    , : *
     
      

    BLIBL-