|  
 
:  
  : :  
      ?    

  |

akords.org » » »

-  

Author/Artist:DiDula
Title:"Aisedora"
Album:"Flamenco"
Transcribedby:NemitullaevMerlin
Email:maricone@mail.ru
2:5085/34.17@Fidonet


:3Gm-F-Cm
(6),41.

GmF


|-----------3------------------------|-----------1--------------------------|--
|---------3---3------------3-4-5-4-3-|---------1---1----------1-3-4-3-1-----|--
|-------3-------3--------------------|-------2-------2----------------------|--
|-----5-----------5------------------|-----3-----------3--------------------|--
|---5---------------5----------------|---3---------------3------------------|--
|-3-------------------3-3------------|-1-------------------1----------------|--

2
------------------------------||-----------------------|--------------------
-----4------4-----------------||---3--4----3--1---3-4-3|--------------------
---3---3--3-------------------||-0-------0------0------|--------------------
-1-------1--------------------||-----------------------|--------------------
-----------------0h1-1h3-1-0--||-----------------------|--------------------
-----------------------------3||-----------------------|--------------------

23ࠠ23
-------------------|-------------|-------------|-------------------|----------
-3-3---3-4-6-4-3-1-|-1-3-4-3-1---|-------------|-------------------|----------
-------------------|-----------3-|-2h3-2-------|-------------------|----------
-------------------|-------------|-------3-3\5-|-------------------|----------
-------------------|-------------|-------------|-5-5---5-6-8-6-5-3-|----------
-------------------|-------------|-------------|-------------------|----------

Gm
-------------|---------------|------------3|-5-6-8-6-5-5|--------
-------------|---------------|----------3--|------------|--------
-------------|---------------|--------3----|------------|--------
-------------|---------------|------5------|------------|--------
-3-5-6-5-3-1-|-0h1-1\3-1-0---|----5--------|------------|--------
-------------|-------------3-|--3----------|------------|--------

2ࠠ
---------|---------------------||------------|-------------|
-3-3-3-3-|---3-4---3--1---3-4-3||------------|-------------|
---------|-0-----0------0------||------------|-------------|
---------|---------------------||------------|-------------|
---------|---------------------||-0h1-0------|-1-0----1-0--|
---------|---------------------||-------1-1\3|-----3------3|

maricone@mail.ru
:2:5085/34.17

Adios,amigos!!!

-----------------------------
|  , ,   |
|     http://akords.org     |
-----------------------------

 (: 0)
    :
  • (3 )
  • (4 )
  • (2 )
  •  
    , . '.

    ':*
    E-Mail:*
    :
    , : *
     
      

    BLIBL-