Зробити стартовою  |  Додати в вибране
 
Пошук по сайту:  
  логін: пароль:  
    Реєстрація на сайті   Нагадати пароль?    

Видавництво Симфонія | Книжкова фабрика

akords.org » Д » Дельфин » Она
Знайти необхідні акорди

Дельфин - Она  Табулатура

вступление и куплет:
|------------------------------------
|------------------------------------
|------------------------------------
|-------------6-6----------6-6--6/8--
|-------4-------------4--------------
|------------------------------------

проигрыш:
|------------------------------------------------------------------
|------------------------------------------------------------------
|---------------------------------10------------10-----------------
|-----------6-6/8--8-10/11----6-------10-----6-------10---10/1110-
|-------4----------------------------------------------------------
|------------------------------------------------------------------

2проигрыш:
|------------------------------------------------------------------------------
|------------------------------------------------------------------------------
|----------10------13------10---------13-------10-------------10---------------
|------6-------10--------6-------10---------6-------10----6-------10--10/1110-
|------------------------------------------------------------------------------
|------------------------------------------------------------------------------

Две подруги рука об руку, одна без другой никогда не бывает
Два совершенно разных облика: одна играется, с другой играют
Одна за решеткой времени спрятана, другая вне этой решетки свободна
И только одним жизнь и смерть связаны - обе они женского рода

Жизнь умиляет своею глупостью
Цель неясна, средства туманны
То и дело встречаешься с ее скупостью,
Прося хоть толику небесной манны
У смерти для тебя нет предложений
Она молча делает свое дело,
Забирая душу твою для будущих воскрешений
На три дня родным оставляя тело

Наверное жизнь свою надо в кого-нибудь вкладывать
Хотя для чего все равно не понятно,
Но может быть тогда она станет радовать
В отдельные моменты становясь приятной
Вот тогда можно со смертью спорить,
Отбрасывая себя в конец очереди
Не к ней готовиться, а ее для себя готовить
Относясь к ней как отец к дочери

Еще не известно, как что происходит
Может быть смерть жизнью кончается
Но ведь каждый сюда за чем-то приходит
Для чего-то он здесь появляется
Жизнь и смерть что-то от меня прячут
Хотят сделать из меня урода
Это просто слова которые вообще ничего не значат,
Кроме того что они женского рода

-----------------------------
|  акорди, навчання, відео  |
|     http://akords.org     |
-----------------------------

 (голосів: 0)
   Інші пісні:
  • Может быть, получится
  • То, что делает меня...
  • Седьмое небо
  • Звезда
  • Совсем другой (2 варіант)
  •  
    Шановний відвідувач, Ви зайшли на сайт як незареєстрований користувач. Ми рекомендуємо Вам реєструватися або зайти на сайт під своїм ім'ям.

    Додавання коментаря

    Ім'я:*
    E-Mail:*
    Коментар:
    Введіть два слова, показані на зображенні: *
     
      

    BLIBL-створити сайт безкоштовно