|  
 
:  
  : :  
      ?    

  |

akords.org » » » H

- H  

- H

Transcribed by: Michael Ovchinnikov
Email: mike-ovchinnikov@mtu-net.ru

y , , H ..

[INTRO]

-|-7v-5------7v-5----7-5-5-4/5-----------7-5----7-10-10/12-12-7-5----|
-|------8-8-------8------------8-8-7/8-7-----8--------------------8-8|
-|-------------------------------------------------------------------|
-|-------------------------------------------------------------------|
-|-------------------------------------------------------------------|
-|-------------------------------------------------------------------|

-|-7-5-4/5-5-5---------7-5--|
-|-------------8-7/8-7-----8|
-|--------------------------|
-|--------------------------|
-|--------------------------|
-|--------------------------|

y y:

-|-7-5-5----7-5-5-7----7-5-5-4/5---------7-5--|
-|-------8----------8------------8-7/8-7-----8|
-|--------------------------------------------|
-|--------------------------------------------|
-|--------------------------------------------|
-|--------------------------------------------|

:

-|-------------------------------7b-7----------------------------|
-|-7r-7/8---5-7r-8-7-5---5-8/10-------11h10h8-11h10h8-8--8-7-----|
-|--------8------------8-------------------------------------8-9-|
-|---------------------------------------------------------------|
-|---------------------------------------------------------------|
-|---------------------------------------------------------------|


-|-------------------------------------------------------------------------|
-|-------------------------------5-7-7-8-8-10-10-12-12-12-12p13h12-10-12p13|
-|-----------------7p8p9-7-9-9---------------------------------------------|
-|-7p8h7-7-5-7-5-----------------------------------------------------------|
-|---------------7---------------------------------------------------------|
-|-------------------------------------------------------------------------|


-|--------------------------------------------------7-5-5------7-5-5--|
-|-11h10-8-10-8---8-10b---10r-10r-8---------------8-------8-8--------8|
-|--------------9-----------------------------7-9---------------------|
-|------------------------------------5-7-7/9-------------------------|
-|--------------------------------------------------------------------|
-|--------------------------------------------------------------------|


-|-7-5-5-----7-7-7-7r-5-7-5----------7-5---|
-|--------8-----------------8--8-7-7-----8-|
-|-----------------------------------------|
-|-----------------------------------------|
-|-----------------------------------------|
-|-----------------------------------------|

H .
--------
p: Denis Piskun 2:5027/16.40
p: Leonid Tylkevitch 2:450/104.90

Em*
Em E E7 Am Am7 1]--0--
H p, p ⠠ 2]--2--
D G D Em Em* Em6 Em* 3]--2--
p p "H" "". 4]--0--
H p, 頠 5]--1--
p p, yp. 6]--0--

G,D,Em,G,D,Em,G,D,F,Em,G,D,Em - pp Em6
1]--0--
H p, , 2]--2--
H p, p. 3]--2--
H , y , 4]--0--
H "py" . 5]--2--
6]--0--
G,D,Em,G,D,Em,G,D,F,Em,G,D,Em - pp

H p, p p
H p p
H p, p
H .

G,D,Em,G,D,Em,G,D,F,Em,G,D,Em - pp

-----------------------------
|  , ,   |
|     http://akords.org     |
-----------------------------

 (: 0)
    :
  • (2 )
  •  
    , . '.

    ':*
    E-Mail:*
    :
    , : *
     
      

    BLIBL-